Cifra Club

Aprenda

No Way No

Magic!

Cifra: Principal (violão e guitarra)
tom: Bb
(Pra tocar os solos e montar os acordes dessa cifra, afinar a 6ª corda em ré)

Intro:  Gm  Cm  F  Dm  Gm  Cm  F

Solo Intro:

Parte 1

E|----------------------------------------------------|
B|----------------------------------------------------|
G|----------------------------------------------------|
D|----------------------------------------------------|
A|----------5-5-3-3-------5-5-5-5-5-1-0---------------|
E|-5--5-8-8----------3-3------------------------------|

Parte 2

E|----------------------------------------------------|
B|----------------------------------------------------|
G|----------------------------------------------------|
D|----------------------------------------------------|
A|-----------5-5-3-3--3--------8-8-8-8-8-5------------|
E|-5-—5-8-8-------------3-3--3-------------8----------|

Primeira Parte:

        Gm
Hey, baby, baby
Cm
   Your heart's too big
 F                  Dm
To be treated small
                       Gm
So please don't blame me, blame me
Cm
   For trying to be the one
  F
Who could have it all

                       Gm
You know that it's stupid, stupid
Cm
   Telling you it's dark
  F                    Dm
When you see the light
                         Gm
And I know you ain't foolish, foolish
Cm
   Just give me one chance
F
I could treat you right

So I say

Refrão:

Gm        Cm                F
   Will I ever be too far away
                Dm
When you feel alone
         Gm
No way, no
       Cm                  F
Will I ever back down my sword
 
To protect our home
         Gm
No way, no

       Cm
Will I ever spend a day not 
 F                        Dm
Telling you you're beautiful
         Gm
No way, no
    Cm           F
No way, no way, no

No way, no way, no

Segunda Parte:

    Gm            Cm
My sister, sister
              F                  Dm
Told me that love ever hits your eyes
                  Gm                Cm
I promise you'll miss her, miss her
                     F
The second that she walks

Right out your sight

                   Gm   Cm
So we should just do it
                        F
'Cause I don't want to risk 
           Dm
Her being right
              Gm     Cm
Let's not be foolish
                     F
Don't you know that family never lies

I promise that

Refrão:

Gm        Cm                F
   Will I ever be too far away
                Dm
When you feel alone
         Gm
No way, no
       Cm                  F
Will I ever back down my sword
 
To protect our home
         Gm
No way, no

       Cm
Will I ever spend a day not 
 F                        Dm
Telling you you're beautiful
         Gm
No way, no
    Cm           F
No way, no way, no

No way, no way, no

Solo:

Parte 1

E|----------------------------------------------------|
B|----------------------------------------------------|
G|----------------------------------------------------|
D|----------------------------------------------------|
A|----------------------------------------------------|
E|-5-5-5-5-8-8-7--5-5-5-5-8-8-7-0-3-------------------|

Parte 2

E|----------------------------------------------------|
B|----------------------------------------------------|
G|----------------------------------------------------|
D|----------------------------------------------------|
A|----------------------------------------------------|
E|-5-5-5-5-8-8-7--0-3-3-0-3-0-3-5---------------------|

Terceira Parte:

        Gm      Cm
Hey, lady, lady
                  F                 Dm
Life's too short to be waiting long
                   Gm           Cm
So let's not waste it, waste it
               F
When we both know you're the one

Refrão:

Gm        Cm                F
   Will I ever be too far away
                 Dm
When you feel alone
         Gm
No way, no
       Cm                  F
Will I ever back down my sword
 
To protect our home
         Gm
No way, no

       Cm
Will I ever spend a day not 
 F                        Dm
Telling you you're beautiful
         Gm
No way, no
    Cm           F
No way, no way, no

No way, no way, no

Final:

No way, no way, no
No way, no way, no
No way, no way, no
No way, no way, no

Gm     Cm           F
   No way, no way, no
    Dm           Gm
No way, no way, no
    Cm           F
No way, no way, no

No way, no way, no

Gm     Cm           F
   No way, no way, no
    Dm           Gm
No way, no way, no
    Cm           F
No way, no way, no

No way, no way, no

No way, no way, no
No way, no way, no
No way, no way, no
No way, no way, no
Colaboração e revisão:
  • Leandro Sandim
  • anderson augusto
141.959 exibições
  • Simplificar cifra
    • ½ Tom
    • A
    • Bb
    • B
    • C
    • Db
    • D
    • Eb
    • E
    • F
    • F#
    • G
    • Ab
  • Adicionar à lista

    0 comentários

    Ver todos os comentários

    Conseguiu tocar?

    20 Tocaram 1 Ainda não

    Grave um vídeo tocando No Way No e nos envie!

    00:00 / 00:00
    outros vídeos desta música
    repetir qualidade Automático
    Outros vídeos desta música
    00:00 / 00:00
    Automático
    Capítulos
    • Tocando a Música
    • Dicas Iniciais / Equipamentos
    • Afinação
    • Acordes da Música
    • Tocando a Intro e Primeira Parte
    • Ensinando o Ritmo da Intro e Primeira Parte
    • Dicas para o Refrão
    • Tocando o Refrão
    • Ensinando o Ritmo do Refrão
    • Dicas para as repetições e Solo
    • Tocando as repetições e o Solo
    • Ensinando o Solo
    • Solo - Parte 1 de 2
    • Solo - Parte 2 de 2
    • Dicas para a a Terceira Parte, Refrão e Solo
    • Tocando o Solo da Intro
    • Ensinando o Solo da Intro
    • Solo da Intro - Parte 1 de 2
    • Solo da Intro - Parte 2 de 2
    • Encerramento
    • Ficha Técnica

    Cifra Club Pro

    Aproveite o Cifra Club com benefícios exclusivos e sem anúncios
    Cifra Club Pro
    Aproveite o Cifra Club com benefícios exclusivos e sem anúncios
    OK