Cifra Club

Enquanto Sós

Maglore

Cifra: Principal
exibições 14.615
Tom: C# (com acordes na forma de D) Afinação: Eb Ab Db Gb Bb Eb
D       D7M       D7
Se esse sol não vier
            D6                      G      A
O amanhã é pouco pra dizer que é só ilusão
 A#º        D
A escuridão
         D7M    D7
Se essa cor não vier
                   D6             G        A      A#º
Preto e branco é todo universo de habitação
         Bm       Bm7+             E     A
Pra se perder, se achar e se entender
      D    D7
E reviver

                  G           A
Eu só queria ter você no coração
         D    D/C#    Bm/A
Sem ter toda essa tristeza
        G           A
Em que pese ser amor
      D    D/C#    Bm/A
Nunca temos a certeza
         G          A   A#º
De que estamos sós, até o fim

D       D7M       D7
Toda dor pesa a fé
                 D6                    G       A
De que um dia o tempo feche essa cicatrização
A#º
Sem dar vazão...
D       D7M       D7
Mas toda paz é tão certa
           D6                         G        A  A#º
Quanto a alegria de saber lidar com a solidão
      Bm        Bm7+     E    A
E perceber, na realidade crer
        D      D7
Pra renascer

                 G           A
Eu não queria emudecer com a razão
     D    D/C#  Bm/A
E emitir tanta frieza
    G                A
Se pudesse ser mais são
    D  D/C#  Bm/A
Ia ver toda beleza
          G
De que enquanto sós
      A
Somos união

[Solo]  G  A  D  D/C#  Bm 
        G  A  D  D/C#  Bm 

E|-------------------------------------------------------------------|
B|-------------------------------------10----------------------------|
G|--9h11-9h11-9-----------7/9---7-9-9h11----9-7-7/9-7----------------|
D|--------------12-7/9-7---------------------------------------------|
A|-------------------------------------------------------------------|
E|-------------------------------------------------------------------|

E|---------------------------------------------------10--------------|
B|-----------------10/12-10------------------------------------------|
G|--9h11-9h11-9-------------9-7-7-9-9/11-10-10-----------------------|
D|--------------12-----------------------------12-11-----------------|
A|-------------------------------------------------------------------|
E|-------------------------------------------------------------------|
Acordes para:
    Composição: Teago OliveiraColaboração e revisão:

    0 comentários

      mostrar mais comentários

      Conseguiu tocar?

      3tocaram1ainda não

      Grave um vídeo tocando Enquanto Sós e mande pra gente!

      00:00 / 00:00
      outros vídeos desta música
      repetirqualidadeautomática
      Outro vídeos desta música
        00:00 / 00:00
        automática
        OK