Cifra Club

Amor Amor

Magno

Cifra: Principal (violão e guitarra)
tom: D
Intro:
     Bm      D          Em          F#         Bm      D          Em            F#
E|--2----------------------------------------------------------------------------
B|--3----------------------------------------------------------------------------
G|--4---------4-2---------------------------------------4-2----------------------
D|--4-------------4-2-------------5-4----2------------------4-2-------------5-4--
A|--2--2-4-5----------5-2-5-2-5-2----------5-2---2-4-5----------5-2-5-2-5-2------
E|--0----------------------------------------------------------------------------

Bm   D
 Vem   me mostra esse corpo
              F#7
Que eu tanto desejo amor
Em    G
Vem    me faça sentir
               F#7
do seu beijo molhado o sabor
Bm    D
 Diga    que eu sou o seu homem
           F#7
E que nada existe melhor
Em    G
 Diga   que vai ficar comigo
                 F#7
E e que nunca mais me deixa só

Em    A
Faça    desta noite a mais linda
              D
Pra que eu nunca possa esquecer
G           Em
Que eu vou    me entregar corpo e alma
           F#7                      B  F#7
Nos seus braços eu quero morrer,morrer

  B
Amor,amor,amor
               D#7
Me abrace mais forte amor,amor
G#m
Amor,amor,amor
                F#7
Me beije e me sufoque de amor,amor
  B
Amor,amor,amor
               D#7
Me abrace mais forte amor,amor
G#m
Amor,amor,amor
                F#7
Me beije e me sufoque de amor,amor

Solo:

     Bm           D                    F#       Em  G                              F#
E|--2-2-2----------2-2-1-2-7-5-3-2-0-2-0-------7--10-10-10-9-10-14-12-10-10-9-10-12--9-7-6---
B|--3--3----------------------------3---3----------------------------------------------------
G|--4------------------------------------3---------------------------------------------------
D|--4----------------------------------------------------------------------------------------
A|--2-------2-4-5----------------------------------------------------------------------------
E|--0----------------------------------------------------------------------------------------

Em    A
Faça    desta noite a mais linda
              D
Pra que eu nunca possa esquecer
G           Em
Que eu vou    me entregar corpo e alma
           F#7                      B  F#7
Nos seus braços eu quero morrer,morrer

  B
Amor,amor,amor
               D#7
Me abrace mais forte amor,amor
G#m
Amor,amor,amor
                F#7
Me beije e me sufoque de amor,amor
  B
Amor,amor,amor
               D#7
Me abrace mais forte amor,amor
G#m
Amor,amor,amor
                F#7
Me beije e me sufoque de amor,amor
00:00 / 00:00
Outros vídeos desta música
Repetir
Outros vídeos desta música
Compositor não encontrado.
Colaboração e revisão:
  • Alexandre Brasil
  • Claudio Albuquerque
  • cizinho Pamplona
10.862 exibições
    • ½ Tom
    • A
    • Bb
    • B
    • C
    • Db
    • D
    • Eb
    • E
    • F
    • F#
    • G
    • Ab
  • Adicionar à lista

    0 comentários

    Ver todos os comentários

    Conseguiu tocar?

    3 Tocaram 0 Ainda não

    Grave um vídeo tocando Amor Amor e nos envie!

    00:00 / 00:00

    Cifra Club Pro

    Aproveite o Cifra Club com benefícios exclusivos e sem anúncios
    Cifra Club Pro
    Aproveite o Cifra Club com benefícios exclusivos e sem anúncios
    OK