Cifra Club

Cold Water

Major Lazer

Cifra: Principal (violão e guitarra)
Selo Cifra Club: esta cifra foi revisada para atender aos critérios oficiais da nossa Equipe de Qualidade.
tom: A (forma dos acordes no tom de C) Capotraste na 9ª casa
(Am C Em F)

"Pode dedilhar a música toda até o refrão ou fazer os acordes)

    Am           C               Em            F
E|-------------------------0---|---------------------------|
B|-------1---------------------|---------------------------|
G|-----2----------------0------|-------0--------------2----|
D|---2---------------2---------|-----2--------------3-----3| 3X
A|-0------------3--------------|---2--------------3--------|
E|-----------------------------|-0------------1------------|

  Am           C                 Em            F
E|-------------------------0---|----------------------------|
B|-------1---------------------|----------------------------|
G|-----2----------------0------|-------0--------------2---0-|
D|---2---------------2---------|-----2--------------3-------| 
A|-0------------3--------------|---2--------------3---------|
E|-----------------------------|-0------------1-------------|

[Verso 1: Justin Bieber]

Am          C                         Em  F
  Everybody gets high sometimes, you know
Am          C                            Em  F
  What else can we do when we're feeling low?
Am       C                         Em  F
  So take a deep breath and let it go
Am             C                   Em  F
  You shouldn't be drowning on your own


[Pre-Refrão: Justin Bieber]

            Am         C               Em       F
And if you feel you're sinking, I will jump right over
      Am   C                 Em  C
Into cold, cold water for you
              Am      C               Em        F
And although time may take us into different places
         Am     C             Em  F
I will still be patient with you
                 D
And I hope you know

I won't let go


[Refrão: Justin Bieber] (Dedilhado sem capo)

(Am C Em F)

E|------------------------------|---------------------|
B|------------------------------|---------------------|
G|-11--9-9h11-------------------|---------------------|
D|------------11-------------11-|-9--11-9----9--11-9--|
A|------------------------12----|---------9----------9|
E|------------------12-12-------|---------------------|

E|------------------------------|---------------------|
B|------------------------------|---------------------|
G|-11---------------------------|---------------------|
D|------9-----12--------------11|-9--11-9----9--11-9--|
A|------------------------12----|---------9----------9|
E|-----------------12-12--------|---------------------|

             
              Am C      Em  F
I'll be your lifeline tonight
             Am C Em F
I won't let go
              Am C      Em  F
I'll be your lifeline tonight


[Verso 2: Justin Bieber]

Am             C                        Em  F
  Cause we all get lost sometimes, you know?
Am            C             Em  F
  It's how we learn, how we grow
Am      C                          Em  F
  And I wanna lay with you 'til I'm old
Am             C                       Em  F
  You shouldn't be fighting on your own


[Pré-Refrão: Justin Bieber]

            Am         C              Em       F
And if you feel you're sinking, I will jump right over
      Am   C                Em  F
Into cold, cold water for you
              Am      C          Em        F
And although time may take us to different places
         Am     C             Em  F
I will still be patient with you
                 D
And I hope you know

I won't let go


[Refrão: Justin Bieber]

  (Am C Em F)
E|------------------------------|---------------------|
B|------------------------------|---------------------|
G|-11--9-9h11-------------------|---------------------|
D|------------11-------------11-|-9--11-9----9--11-9--|
A|------------------------12----|---------9----------9|
E|------------------12-12-------|---------------------|

E|------------------------------|---------------------|
B|------------------------------|---------------------|
G|-11---------------------------|---------------------|
D|------9-----12--------------11|-9--11-9----9--11-9--|
A|------------------------12----|---------9----------9|
E|-----------------12-12--------|---------------------|

             
             Am  C    Em    F
I'll be your lifeline tonight
             Am C Em F
I won't let go
             Am  C    Em     F
I'll be your lifeline tonight


[Ponte: MØ]

Am             C
Come on, come on
                         Em F
Save me from my rocking boat
                        Am C
I just wanna stay afloat
             Em F
I'm all alone
Am         C                             Em F
I hope, I hope, someone's gonna  take me home
                              Am C
Somewhere I can rest my soul
            Em F
I need to know


[Refrão: Justin Bieber + MØ]

(Am C Em F)

E|------------------------------|---------------------|
B|------------------------------|---------------------|
G|-11--9-9h11-------------------|---------------------|
D|------------11-------------11-|-9--11-9----9--11-9--|
A|------------------------12----|---------9----------9|
E|------------------12-12-------|---------------------|

E|------------------------------|---------------------|
B|------------------------------|---------------------|
G|-11---------------------------|---------------------|
D|------9-----12--------------11|-9--11-9----9--11-9--|
A|------------------------12----|---------9----------9|
E|-----------------12-12--------|---------------------|

             Am C Em F
I won't let go
              Am C      Em  F
I'll be your lifeline tonight
             Am C Em F
I won't let go
              Am C      Em  F
I'll be your lifeline tonight


[Final: Justin Bieber]

              Am C Em F
I won't let go
              Am C Em F
I won't let go
Outros vídeos desta música
    10.029 exibições
      • ½ Tom
      • A
      • Bb
      • B
      • C
      • Db
      • D
      • Eb
      • E
      • F
      • F#
      • G
      • Ab
    • Adicionar à lista

    Afinação da cifra

    Afinador online

      0 comentários

      Ver todos os comentários

      Entre para o Cifra Club PRO

      Tenha acesso a benefícios exclusivos no App e no Site

      • Chega de anúncios

      • Badges exclusivas

      • Mais recursos no app do Afinador

      • Atendimento Prioritário

      • Aumente seu limite de lista

      • Ajude a produzir mais conteúdo

      Cifra Club Pro

      Aproveite o Cifra Club com benefícios exclusivos e sem anúncios
      Cifra Club Pro
      Aproveite o Cifra Club com benefícios exclusivos e sem anúncios
      Ops (: Contenido disponible sólo en portugués.
      OK