Cifra Club

Malachi

Maldita

Cifra: Principal (violão e guitarra)
tom: F
(Intro)

Riff1:
'' Não sei se é o céu ou o sol se abrindo derre pente (Regras não quero) não haverá mais regras (regras não quero)''
E|-------------12-12-12-12-12-12-12-------------------7-7-7-7-7-7-7--------------12-12-12-12-12-12-12---------------
B|-10-10-10-10----------------------10-10-9-9-8-8-8-8----------------10-10-10-10----------------------10-10-9-9-8-8-
G|------------------------------------------------------------------------------------------------------------------
D|------------------------------------------------------------------------------------------------------------------
A|------------------------------------------------------------------------------------------------------------------
E|------------------------------------------------------------------------------------------------------------------

E|-----7-7-7-7-7-7-7-----------------------------------------------------------------------------------------------
B|-8-8-------------------------------------------------------------------------------------------------------------
G|-----------------------------------------------------------------------------------------------------------------
D|-----------------------------------------------------------------------------------------------------------------
A|-----------------------------------------------------------------------------------------------------------------
E|-----------------------------------------------------------------------------------------------------------------
 ''... GET WORK''
Riff2:
E|-------------12-12-12-12-12-12-12-------------------7-7-7-7-7-7-7--------------12-12-12-12-12-12-12-------------
B|-10-10-10-10----------------------10-10-9-9-8-8-8-8----------------10-10-10-10----------------------10-10-9-9-8-
G|----------------------------------------------------------------------------------------------------------------
D|----------------------------------------------------------------------------------------------------------------
A|----------------------------------------------------------------------------------------------------------------
E|----------------------------------------------------------------------------------------------------------------

(Continua seguindo com o Riff 1)
Eu me mantive aberto
A força entre as paredes
Seu desejo
Mata minha sede
Você se esconde como insetos
Você tenta fugir
Eu conheço seu veneno
Juntos nós vamos mentir

Gm Am Em (4x)

Obs: depois dessa sequência de acordes você para de tocar e só volta depois a tocar o Riff 1 repetidamente depois que falarem essa frase...

''Não haverá mais regras, não haverá leis, se este mundo acabar, só existira eu e você.''

*Segue usando o Riff 1:

Deixe-se estar ultrapresente
Vamos renascer espiritualmente
A pele é fina
O sangue nós bebemos
Vá em frente faça
O que nós queremos

*Faça a sequência de acordes

Gm     Am
Corte, use, abuse...
Em
Vá se revelando
Gm      Am
Serei o seu demônio
Em
E você vai ser meu anjo
Gm     Am
Corte, use, abuse...
Em
Seja uma rainha
Gm      Am          Em
Serei o seu demônio e você vai ser só minha..

Obs: Nessa próxima parte, você ira deixar o baixo tocar, e você vai fazendo a sequência de acordes, bem fraco, e depois vai aumentando a intensidade do toque com o decorrer do rítimo.

''Regras não quero..'' (Gm Am Em)

Gm                  Am                Em
Eu disse para vocês milhões de vezes, eu disse para vocês
Gm               Am           Em
Porque vocês não acreditem em mim?
Gm     Am     Em
Devil, devil, devil, devil...
Gm     Am     Em
Devil, devil, devil, devil...

Sequência de acordes junto ao refrão:

Gm     Am
Corte, use, abuse...
Em
Vá se revelando
Gm      Am
Serei o seu demônio
Em
E você vai ser meu anjo
Gm     Am
Corte, use, abuse...
Em
Seja uma rainha
Gm      Am          Em
Serei o seu demônio e você vai ser só minha..

(Solo)
Obs: quando a guitarra estiver fazendo o solo, você continua com a sequência de acordes ao mesmo tempo até acabar a música.

Gm Am Em
00:00 / 00:00
Outros vídeos desta música
Repetir
Outros vídeos desta música
Composição de Erich Mariani
Colaboração e revisão:
  • Gabriela Gagliasso
  • michele cordeiro
2.710 exibições
    • ½ Tom
    • A
    • Bb
    • B
    • C
    • Db
    • D
    • Eb
    • E
    • F
    • F#
    • G
    • Ab
  • Adicionar à lista

    0 comentários

    Ver todos os comentários

    Conseguiu tocar?

    0 Tocaram 0 Ainda não

    Grave um vídeo tocando Malachi e nos envie!

    Entre para oCifra Club PRO

    Tenha acesso a benefícios exclusivos no App e no Site

    • Chega de anúncios

    • Prioridade de compra em lançamentos

    • Mais recursos no app do Afinador

    • Atendimento Prioritário

    • Descontos nos produtos Cifra Club

    • Ajude a produzir mais conteúdo

    00:00 / 00:00

    Cifra Club Pro

    Aproveite o Cifra Club com benefícios exclusivos e sem anúncios
    Cifra Club Pro
    Aproveite o Cifra Club com benefícios exclusivos e sem anúncios
    OK