Notificações Amigos pendentes

      Mamonas Assassinas

      1406

      415.375 exibições
      Tom: C
      Intro:
      
      E|--------9~~--15----|
      B|--------8~~--15b17-|
      G|-------------------|
      D|-------------------|
      A|-------------------|
      E|-------------------|
      
      
        H.a.                                  .
      
      E|---------------------------------------------------------------------------------|
      B|-------------------------------------5a.~----------------------------------------|
      G|-----------------------------------6---------------------------------------------|
      D|---7-6p0----------------7-6p0----5---------7-6p0---------------7-6p0-----(4-5)---|
      A|---------4-4/5~---------------4-4----------------4-4/5~--------------4---(4-5)---|
      E|-0-------------4/5~---0------------------0-------------4/5~--0-----------(2-3)---|(X2)
      
      
      a.= Harmônico Artificial (Palheta a corda e, em seguida, encosta o dedão para sair um som bem estridente)
      ()= Só na primeira vez
      
      
      (Verso)
      
      
      E|-------------------------9~~---|------------------------15----|
      B|-------------------------8~~---|------------------------15b17-|
      G|-------------------------------|------------------------------|
      D|-------------------------------|------------------------------|
      A|-----4-5-----6-7---4-----------|-----4-5-----6-7---4----------|
      E|-0-3-----3-0-----3-------------|-0-3-----3-0-----3------------| (X8)
      
      
      E
      Eu queria um apartamento no Guarujá mas o melhor que consegui foi um barraco em Itaquá
      Você não sabe como parte um coração, ver seu filhinho chorando querendo ter um avião
      Você não sabe como é frustrante, ver sua filhinha chorando por um colar de diamantes
      Você não sabe como eu fico chateado, ver meu cachorro babando por um carro importado
      
      
      G5   E5  F5                   G5   E5  F5
      Money      que é good nós no have,        se nós hevasse
                            G5  E5  F5                      E5
      Nós num tava aqui playando,     mas nós precisa de worká
      G5   E5  F5                   G5 E5 F5
      Money      que é good nós no have,      se nós hevasse
                           G5   E5  F5                   E5
      Nós num tava aqui workando,      o nosso work é playá
      
      
      (Intro)
      
      (Verso)
      
      E
      Mas a pior de todas é a minha mulher, tudo o que ela olha a desgraçada quer
      Televisão, microondas, micro system, microscópio, limpa-vidro, limpa-chifres
      Faca ginsu, eu sou cagado veja só como é que é
      Se der chuva de Xuxa no meu colo cai Pelé
      Como aquele ditado que já dizia : Pau que nasce torto, mija fora da bacia
      
      (Refrão)
      
      (Intro)
      
      (Verso)
      
      E
      Mas a pior de todas é minha mulher, tudo o que ela olha a desgraçada quer
      Ambervision, frigi-diet, celular, master-line, camisinha, camisola e kamikaze
      Eu sou cagado veja só como é que é, se der uma chuva de Xuxa no meu colo cai Pelé
      Como aquele ditado que já dizia : Pau que nasce torto, mija fora da bacia
      
      (Refrão)
        P.m.. ....            
      
      E|---------------15----|
      B|---------------15b17-|
      G|---------------------|
      D|---------------------|
      A|-2222-22222*---------|
      E|-0000-00000*---------| (Obs.: Até a música acabar)
      
      
      
        Composição: Dinho / Júlio RasecColaboração e revisão:
        • alex_fernando
        • Rinaldo
        • champoski
        • carlos
        • +8

        Comentários 17

        140 .
        • gabriel gabriel: Em 26/05/2016 22:43

          E Esse Verso Tá Certo ?

        • Luiz Luiz: Em 27/02/2016 17:20

          tem tanta vídeo aula com sertanojo ,e desta musica não vai intender

        • Eduardo Eduardo: Em 19/09/2015 22:50

          como vejo a batida e o ritmo
          alguem me ajuda

        • Bruno Bruno: Em 01/09/2015 21:56

          Video aulaaaaaa

        • mateus mateus: Em 18/12/2014 20:39

          alguem sabe as configuraçoes do amplificador? tipo o gain o bass ,mid e treble

        • ian ian: Em 11/12/2014 23:02

          Video Aula

        • Fagner Fagner: Em 16/10/2014 13:20

          esse verso ta errado

        • Iago Iago: Em 02/07/2014 16:59

          Muito massa

        • Pedro Pedro: Em 12/06/2014 21:23

          A musica foi facil entender a tablatura,bem organizada, mas agora tem q treinar pois agr q comecei na guitarra

        • maxcifras maxcifras: Em 25/03/2014 21:56

          vídeo aula po!

        140 cancelar

        conseguiu tocar?

        • •••
        0:00 / 0:00

        Capítulos

          3 versões de Guitar Proformatodownloadscontribuição
          play/pausefechar subir/descer velocidade
          6ª corda E5ª corda A4ª corda D3ª corda G2ª corda B1ª corda E
            acordes
            publicidade
            fechar
            ok