Cifra Club

1406

Mamonas Assassinas

Cifra: Principal
exibições 454.803
Tom: C
[Intro]

E|--------9~~--15-----------------|
B|--------8~~--15b17--------------|
G|--------------------------------|
D|--------------------------------|
A|--------------------------------|
E|--------------------------------|

[Riff]

E|------------------------------------------------------------------------------------|
B|----------------------------------------5a.~----------------------------------------|
G|--------------------------------------6---------------------------------------------|
D|------7-6p0----------------7-6p0----5---------7-6p0---------------7-6p0-----(4-5)---|
A|------------4-4/5~---------------4-4----------------4-4/5~--------------4---(4-5)---|
E|-3~p0-------------4/5~---0------------------0-------------4/5~--0-----------(2-3)---|

[Riff Verso]

E|---------------------------9~~---|--------------------------15----|
B|---------------------------8~~---|--------------------------15b17-|
G|---------------------------------|--------------------------------|
D|---------------------------------|--------------------------------|
A|-----4-5-------6-7---4-5---------|-----4-5-------6-7---4-5--------|
E|-0-3-----3-0---------------------|-0-3-----3-0--------------------|

Eu queria um apartamento no Guarujá mas o melhor que consegui foi um barraco em Itaquá
Você não sabe como parte um coração, ver seu filhinho chorando querendo ter um avião
Você não sabe como é frustrante, ver sua filhinha chorando por um colar de diamantes
Você não sabe como eu fico chateado, ver meu cachorro babando por um carro importado

 G5   E5  F5                  G5  E5  F5
Money      que é good nós no have        se nós hevasse
                      G5   E5  F5                       E5
Nós num tava aqui playando       mas nós precisa de worká
 G5   E5  F5                   G5  E5  F5
Money       que é good nós no have       se nós hevasse
                      G5   E5  F5                   E5
Nós num tava aqui workando       o nosso work é playá


Mas a pior de todas é a minha mulher, tudo o que ela olha a desgraçada quer
Televisão, microondas, micro system, microscópio, limpa-vidro, limpa-chifres
Faca ginsu, eu sou cagado veja só como é que é
Se der chuva de Xuxa no meu colo cai Pelé
Como aquele ditado que já dizia : Pau que nasce torto, mija fora da bacia

G5   E5  F5                  G5  E5  F5
Money      que é good nós no have        se nós hevasse
                      G5   E5  F5                       E5
Nós num tava aqui playando       mas nós precisa de worká
 G5   E5  F5                   G5  E5  F5
Money       que é good nós no have       se nós hevasse
                      G5   E5  F5                   E5
Nós num tava aqui workando       o nosso work é playá


Mas a pior de todas é minha mulher, tudo o que ela olha a desgraçada quer
Ambervision, frigi-diet, celular, master-line, camisinha, camisola e kamikaze
Eu sou cagado veja só como é que é, se der uma chuva de Xuxa no meu colo cai Pelé
Como aquele ditado que já dizia : Pau que nasce torto, mija fora da bacia

G5   E5  F5                  G5  E5  F5
Money      que é good nós no have        se nós hevasse
                      G5   E5  F5                       E5
Nós num tava aqui playando       mas nós precisa de worká
 G5   E5  F5                   G5  E5  F5
Money       que é good nós no have       se nós hevasse
                      G5   E5  F5                   E5
Nós num tava aqui workando       o nosso work é playá
        
E|---------------15----------------------|
B|---------------15b17-------------------|
G|---------------------------------------|
D|---------------------------------------|
A|-2222-22222*---------------------------|
E|-0000-00000*---------------------------|

0 comentários

    mostrar mais comentários

    Conseguiu tocar?

    38tocaram3ainda não

    Grave um vídeo tocando 1406 e mande pra gente!

    00:00 / 00:00
    outros vídeos desta música
    repetirqualidadeautomática
    Outro vídeos desta música
      00:00 / 00:00
      automática
      OK