Cifra Club

1406

Mamonas Assassinas

Cifra: Principal (violão e guitarra)
exibições 480.326
Tom: C
Introdução:

(Guitarra 1 - TAB 1)

E|-----------------------------------------------------|
B|-----------------------------------------------------|
G|-----------------------------------------------------|
D|----7-x-6p0------------------------------------------|
A|------------x-4-x-4-5-x------------------------------|
E|-0----------------------4/5\-------------------------|

(Guitarra 1 - TAB 2)

E|-----------------------------------------------------|
B|--------------------------5~-------------------------|
G|-----------------------6-----------------------------|
D|----7-x-6p0---------5--------------------------------|
A|------------x-4-x-4----------------------------------|
E|-0---------------------------------------------------|

(Guitarra 1 - TAB 3)

E|-----------------------------------------------------|
B|-----------------------------------------------------|
G|-----------------------------------------------------|
D|----7-x-6p0------------------------------------------|
A|------------x-4-x-4-5-x------------------------------|
E|-0----------------------4/5\-------------------------|

(Guitarra 1 - TAB 4)

E|-----------------------------------------------------|
B|-----------------------------------------------------|
G|-----------------------------------------------------|
D|----7-x-6p0---------4----5---------------------------|
A|------------x-4-x-4-4----5---------------------------|
E|-0------------------2--x-3---------------------------|

(Guitarra 1 - TAB 5)

E|-----------------------------------------------------|
B|-----------------------------------------------------|
G|-----------------------------------------------------|
D|----7-x-6p0------------------------------------------|
A|------------x-4-x-4-5-x------------------------------|
E|-0----------------------4/5\-------------------------|

(Guitarra 1 - TAB 6)

E|-----------------------------------------------------|
B|--------------------------5~-------------------------|
G|-----------------------6-----------------------------|
D|----7-x-6p0---------5--------------------------------|
A|------------x-4-x-4----------------------------------|
E|-0---------------------------------------------------|

(Guitarra 1 - TAB 7)

E|-----------------------------------------------------|
B|-----------------------------------------------------|
G|-----------------------------------------------------|
D|----7-x-6p0------------------------------------------|
A|------------x-4-x-4-5-x------------------------------|
E|-0----------------------4/5\-------------------------|

(Guitarra 1 - TAB 8)

E|-----------------------------------------------------|
B|-----------------------------------------------------|
G|-----------------------------------------------------|
D|----7-x-6p0------------------------------------------|
A|------------x-4--------------------------------------|
E|-0---------------------------------------------------|

(Guitarra 2)

E|-9~~-------------------15----------------------------|
B|-8~~-------------------15b---------------------------|
G|-----------------------------------------------------|
D|-----------------------------------------------------|
A|-----------------------------------------------------|
E|-----------------------------------------------------|


Primeira Estrofe:

(Guitarra 1)

E|-----------------------------------------------------|
B|-----------------------------------------------------|
G|-----------------------------------------------------|
D|-----------------------------------------------------|
A|-----4-5-----6-7-x---4-------------------------------|
E|-0-3-----3-0-----x-0---------------------------------|

Eu queria um apartamento
No Guarujá
Mas o melhor que consegui
Foi um barraco em Itaquá
Você não sabe como parte um coração
Ver seu filhinho chorando
Querendo ter um avião
Você não sabe como é frustrante
Ver sua filhinha chorando
Por um colar de diamantes
Você não sabe como eu fico chateado
Ver meu cachorro babando
Por um carro importado


Refrão:

 G5   E5  F5
Money
                    G5
Que é good nós num have
    E5    F5
Se nós havasse
                      G5   E5  F5
Nós num tava aqui playando
                       E5
Mas nós precisa de worká

 G5   E5  F5
Money
                    G5
Que é good nós num have
    E5    F5
Se nós havasse
                      G5   E5  F5
Nós num tava aqui workando
                   E5
O nosso work é playá


(Interlúdio)


Segunda Estrofe:

Mas a pior de todas
É minha mulher
Tudo o que ela olha
A desgraçada quer
Televisão, microondas
Micro system, microscópio
Limpa-vidro, limpa-chifre
E facas Ginsu
Eu sou cagado
Vejam só como é que é
Se der uma chuva de Xuxa
No meu colo cai Pelé
É como aquele ditado que já dizia
Pau que nasce torto
Mija fora da bacia


Refrão:

 G5   E5  F5
Money
                    G5
Que é good nós num have
    E5    F5
Se nós havasse
                      G5   E5  F5
Nós num tava aqui playando
                       E5
Mas nós precisa de worká

 G5   E5  F5
Money
                    G5
Que é good nós num have
    E5    F5
Se nós havasse
                      G5   E5  F5
Nós num tava aqui workando
                   E5
O nosso work é playá


(Interlúdio)

(TAB 1)

E|-----------------------------------------------------|
B|-----------------------------------------------------|
G|-----------------------------------------------------|
D|----7-x-6p0------------------------------------------|
A|------------x-4-x-4-5-x------------------------------|
E|-0----------------------4/5\-------------------------|

(TAB 2)

E|-----------------------------------------------------|
B|--------------------------5~-------------------------|
G|-----------------------6-----------------------------|
D|----7-x-6p0---------5--------------------------------|
A|------------x-4-x-4----------------------------------|
E|-0---------------------------------------------------|

(TAB 3)

E|-----------------------------------------------------|
B|-----------------------------------------------------|
G|-----------------------------------------------------|
D|----7-x-6p0------------------------------------------|
A|------------x-4-x-4-5-x------------------------------|
E|-0----------------------4/5\-------------------------|

(TAB 4)

E|-----------------------------------------------------|
B|-----------------------------------------------------|
G|-----------------------------------------------------|
D|----7-x-6p0------------------------------------------|
A|------------x-4--------------------------------------|
E|-0---------------------------------------------------|

(TAB 5)

E|-----------------------------------------------------|
B|-----------------------------------------------------|
G|-----------------------------------------------------|
D|----7-x-6p0------------------------------------------|
A|------------x-4-x-4-5-x------------------------------|
E|-0----------------------4/5\-------------------------|

(TAB 6)

E|-----------------------------------------------------|
B|--------------------------5~-------------------------|
G|-----------------------6-----------------------------|
D|----7-x-6p0---------5--------------------------------|
A|------------x-4-x-4----------------------------------|
E|-0---------------------------------------------------|

(TAB 7)

E|-----------------------------------------------------|
B|-----------------------------------------------------|
G|-----------------------------------------------------|
D|----7-x-6p0------------------------------------------|
A|------------x-4-x-4-5-x------------------------------|
E|-0----------------------4/5\-------------------------|

(TAB 8)

E|-----------------------------------------------------|
B|-----------------------------------------------------|
G|-----------------------------------------------------|
D|----7-x-6p0------------------------------------------|
A|------------x-4--------------------------------------|
E|-0---------------------------------------------------|


Terceira Estrofe:

Mas a pior de todas
É minha mulher
Tudo o que ela olha
A desgraçada quer
Ambervision, frigi-diet
Celular, master-line
Camisinha, camisola e kamikaze
Eu sou cagado
Vejam só como é que é
Se der uma chuva de Xuxa
No meu colo cai Pelé
É como aquele ditado que já dizia
Pau que nasce torto
Mija fora da bacia


Refrão:

 G5   E5  F5
Money
                    G5
Que é good nós num have
    E5    F5
Se nós havasse
                      G5   E5  F5
Nós num tava aqui playando
                   E5
Nós precisa de worká

 G5   E5  F5
Money
                    G5
Que é good nós num have
    E5    F5
Se nós havasse
                      G5   E5  F5
Nós num tava aqui workando
                   E5
O nosso work é playá

 G5   E5  F5
Money
                    G5
Que é good nós num have
    E5    F5
Se nós havasse
                      G5   E5  F5
Nós num tava aqui playando
                   E5
Nós precisa de worká

 G5   E5  F5
Money
                    G5
Que é good nós num have
    E5    F5
Se nós havasse
                      G5   E5  F5
Nós num tava aqui workando
                   E5
O nosso work é playá


Final: E5

0 comentários

    mostrar mais comentários

    Conseguiu tocar?

    43tocaram3ainda não

    Grave um vídeo tocando 1406 e mande pra gente!

    00:00 / 00:00
    outros vídeos desta música
    repetirqualidadeAutomático
    Outro vídeos desta música
      00:00 / 00:00
      Capítulos
      • Tocando a música
      • Apresentação / Equipamentos
      • Tocando Introdução
      • Introdução (Guitarra 2)
      • Riff Introdução (Guitarra 1)
      • Dicas da Primeira Estrofe
      • Tocando Primeira Estrofe
      • Estrofe (Guitarra 1)
      • Acordes Refrão
      • Tocando Refrão
      • Ensinando Refrão
      • Dicas da música
      • Tocando repetição
      • Ensinando final
      • Encerramento
      OK