Cifra Club

Aprenda

Êxodo

Maneva

Tab de baixo: Principal
G-----------------------|-----------------------|
D-----------------------|----------2------------|   (x4)
A----------2---5--4-----|--2---5-------4--5-----|
E--2---5----------------|-----------------------|



REFRÃO
G-----------------------|-----------------------|
D-----------------------|-----------------------|   (x2)
A----4---------3--------|----2---------1--------|
E-----------------------|-----------------------|
Composição de TALES DE POLLI
Colaboração e revisão:
  • Felipe Lorenzi
592 exibições

0 comentários

Mostrar mais comentários

Conseguiu tocar?

0 Tocaram 0 Ainda não

Grave um vídeo tocando Êxodo e mande pra gente!

00:00 / 00:00
outros vídeos desta música
repetir qualidade Automático
Outros vídeos desta música
00:00 / 00:00
Automático

Cifra Club Pro

Aproveite o Cifra Club com benefícios exclusivos e sem anúncios
7 dias grátis
Cifra Club Pro
Aproveite o Cifra Club com benefícios exclusivos e sem anúncios
7 dias grátis
OK