Cifra Club

Aprenda

Luz Que Me Traz Paz

Maneva

Cifra: Principal (violão e guitarra)
Tom: Dm
[Intro] Dm  Dm/C  Bb7M
        Dm  Dm/C  Bb7M

E|-------------------------7/8---------------|
B|-----5--6--8-------5--6-------6~-----------|
G|-7~------------7~--------------------------|
D|-------------------------------------------|
A|-------------------------------------------|
E|-------------------------------------------|

E|----------------5--6--5-----5~-------------|
B|-------------8-----------8------8~---------|
G|----------7--------------------------------|
D|-5--7--8-----------------------------------|
A|-------------------------------------------|
E|-------------------------------------------|

E|-------------------------------------------|
B|-6--5~--5h6--5~--6-------------------------|
G|--------------------7----------------------|
D|-----------------------7--5----------------|
A|-----------------------------8--7--7/8--5--|
E|-------------------------------------------|

[Primeira Parte]

Dm                                  Am
 Refletiu nos meus olhos adeus solidão
                                       Dm
Duas histórias que se cruzam sem intenção
                                   Am
Combustível pra alma minha inspiração
                                    Bb7M  Am   Bb7M  Am
Povoando minha existência e imaginação

[Riff 1]

E|-------6-----------------------------------|
B|----6-----8/10-----------------------------|
G|-7-----------------------------------------|
D|-------------------------------------------|
A|-------------------------------------------|
E|-------------------------------------------|

[Segunda Parte]

Dm                                        Am
 Quando fecho meus olhos sempre posso sentir
Os seus olhos e seus lábios sorrindo pra mim
Dm                                     Am
 Nado nesses seus olhos mar de inspiração
                                     Bb7M  Am
Tua boca, tua pele, teu cheiro é canção

( Bb7M  Eb7M  A7 )

[Refrão]

    Bb7M          Gm7         C7            Dm
Eu vou cantar pra ela que sem ela não existo mais

[Riff 2]

E|-------------------------------------------|
B|----5--6--8----5--6--8---------------------|
G|-7----------7------------------------------|
D|-------------------------------------------|
A|-------------------------------------------|
E|-------------------------------------------|

    Bb7M          Gm7         C7             Dm
Eu vou cantar pra ela que eu sempre a quero mais

[Riff 2]

E|-------------------------------------------|
B|----5--6--8----5--6--8---------------------|
G|-7----------7------------------------------|
D|-------------------------------------------|
A|-------------------------------------------|
E|-------------------------------------------|

      Bb7M         Gm7              C7
E eu vou dizer pra ela que ela é a luz que me traz paz

[Solo] Dm  Dm/C  Bb7M
       Dm  Dm/C  Bb7M

E|-------------------------------10----------|
B|----5--6--8-----5--6--8--8/10------10------|
G|-7-----------7-----------------------------|
D|-------------------------------------------|
A|-------------------------------------------|
E|-------------------------------------------|

E|-------------------------------------------|
B|----5--6--8----5--6--8--8/10--10--8--6--5--|
G|-7----------7------------------------------|
D|-------------------------------------------|
A|-------------------------------------------|
E|-------------------------------------------|

[Primeira Parte]

Dm                                  Am
 Refletiu nos meus olhos adeus solidão
                                       Dm
Duas histórias que se cruzam sem intenção
                                   Am
Combustível pra alma minha inspiração
                                    Bb7M  Am   Bb7M  Am
Povoando minha existência e imaginação

[Riff 1]

E|-------6-----------------------------------|
B|----6-----8/10-----------------------------|
G|-7-----------------------------------------|
D|-------------------------------------------|
A|-------------------------------------------|
E|-------------------------------------------|

[Terceira Parte]

Dm                                  Am
 Teus cabelos meus dedos vigor e desejo
O suspiro e o sal na pele começa com um beijo
Dm                                   Am
 Nossas bocas duas peças encaixe perfeito
                                   Bb7M  Am
Eu me entrego nervoso nunca com receio

( Bb7M  Eb7M  A7 )

[Refrão]

    Bb7M          Gm7         C7            Dm
Eu vou cantar pra ela que sem ela não existo mais

[Riff 2]

E|-------------------------------------------|
B|----5--6--8-----5--6--8--------------------|
G|-7----------7------------------------------|
D|-------------------------------------------|
A|-------------------------------------------|
E|-------------------------------------------|

    Bb7M          Gm7         C7             Dm
Eu vou cantar pra ela que eu sempre a quero mais

[Riff 2]

E|-------------------------------------------|
B|----5--6--8----5--6--8---------------------|
G|-7----------7------------------------------|
D|-------------------------------------------|
A|-------------------------------------------|
E|-------------------------------------------|

      Bb7M         Gm7              C7              Dm
E eu vou dizer pra ela que ela é a luz que me traz paz

[Riff 2]

E|-------------------------------------------|
B|----5--6--8----5--6--8---------------------|
G|-7----------7------------------------------|
D|-------------------------------------------|
A|-------------------------------------------|
E|-------------------------------------------|

[Final]

      Bb7M         Gm7
E eu vou dizer pra ela
      Bb7M         Gm7
E eu vou dizer pra ela
      Bb7M         Gm7              C7
E eu vou dizer pra ela que ela é a luz que me traz paz

( Dm  Dm/C  Bb7M )
392.809 exibições
  • Simplificar cifra
    • ½ Tom
    • Am
    • Bbm
    • Bm
    • Cm
    • C#m
    • Dm
    • Ebm
    • Em
    • Fm
    • F#m
    • Gm
    • G#m
  • Adicionar à lista

    0 comentários

    Mostrar mais comentários

    Conseguiu tocar?

    55 Tocaram 7 Ainda não

    Grave um vídeo tocando Luz Que Me Traz Paz e mande pra gente!

    00:00 / 00:00
    outros vídeos desta música
    repetir qualidade Automático
    Outros vídeos desta música
    00:00 / 00:00
    Automático

    Cifra Club Pro

    Aproveite o Cifra Club com benefícios exclusivos e sem anúncios
    7 dias grátis
    Cifra Club Pro
    Aproveite o Cifra Club com benefícios exclusivos e sem anúncios
    7 dias grátis
    OK