Cifra Club

Aprenda

Ode Ao Tempo

Maneva

Tab de baixo: Principal
  INTRO
G|----------------------------2----------------------------4---------|
D|-------------22-00-----------------2-4-----2-4-------4-------------|
A|----------22-------44-22-0---0--55-----4h55-----22-5-------2-------|
E|-00-22-33----------------------------------------------------------|

  VERSO 1  (Me pego sofrendo por tudo...)                                                    
G|----------------------------2----------------------------4------|
D|-------------22-00-----------------2-4-----2-4-------4----------|
A|----------22-------44-22-0---0--55-----4h55-----22-5-------2----|
E|-00-22-33-------------------------------------------------------|

G|----------------------------2----4---4---2-----2-4-----|
D|-------------22-00----------------4---4---4--4-----42--|
A|----------22-------44-22-0----0----2---5---5-----------|
E|-00-22-33----------------------------------------------|

  REFRÃO  (Eu canto a saudade pra ver se ela vai passar...)
G|----------------------------2----------------------------4------| 
D|-------------22-00-----------------2-4-----2-4-------4----------| 2x
A|----------22-------44-22-0---0--55-----4h55-----22-5-------2----|
E|-00-22-33-------------------------------------------------------|

  VERSO 2  (Tendo entender o quão perigoso que é...)
G|----------------------------2---4---3---2---1---2-4-------------| 
D|-------------22-00---------------4---4---4----------4-2---------| 
A|----------22-------44-22-0---0----5---5---5---------------------|
E|-00-22-33-------------------------------------------------------|

  SOLO
G|----------------------------2----------------------------4---------|
D|-------------22-00-----------------2-4-----2-4-------4-------------|
A|----------22-------44-22-0---0--55-----4h55-----22-5-------2-------|
E|-00-22-33----------------------------------------------------------|

  VERSO 1   (Me pego sofrendo por tudo...)                                                       
G|----------------------------2--------2-------------------------12/-|
D|-------------22-00-----------------2---4--4-2--------5/7-5~--12----|
A|----------22-------44-22-0---0--55------------5----5---------------|
E|-00-22-33---------------------------------------3~-----------------|

G|----------------------------2--/4---3---2---1--2-4--------------| 
D|-------------22-00---------------4---4---4----------4-2---------| 
A|----------22-------44-22-0---0----5---5---5---------------------|
E|-00-22-33-------------------------------------------------------|

  REFRÃO    (Eu canto a saudade pra ver se ela vai passar...)
G|----------------------------2--------2--------------------------|
D|-------------22-00-----------------2---4--4-2--------5/7-5/-----|
A|----------22-------44-22-0---0--55------------5----5------------|
E|-00-22-33---------------------------------------3~--------------|

G|----------------------------2--------2-----2------------12---------|
D|-------------22-00-----------------2---4--4-4-5-------12--12-9-----|
A|----------22-------44-22-0---0--55-------------5-2-------------10--|
E|-00-22-33------------------------------------------3---------------|

  VERSO 2  (Tendo entender o quão perigoso que é...)
G|----------------------------2--/4---3---2---1--2-4------9~/-----| 
D|-------------22-00---------------4---4---4----------4-2---------| 
A|----------22-------44-22-0---0----5---5---5---------------------|
E|-00-22-33-------------------------------------------------------|

  FINAL
G|----------------------------2--/4---3---2---1--2-4--------------| 
D|-------------22-00---------------4---4---4----------4-2---------| 
A|----------22-------44-22-0---0----5---5---5---------------------|
E|-00-22-33-------------------------------------------------------|

G|-----------------------------2--/4---3---2---1--2-4-------9~/----| 
D|-------------22-00----------------4---4---4----------4-2---------| 
A|----------22-------44-22-0--0-0----5---5---5---------------------|
E|-00-22-33--------------------------------------------------------|

G|---------------------------|
D|-------------22-00---------| 
A|----------22-------44-22-0-|
E|-00-22-33------------------|
Colaboração e revisão:
  • Wilson Anjos
1.050 exibições

0 comentários

Mostrar mais comentários

Conseguiu tocar?

1 Tocaram 0 Ainda não

Grave um vídeo tocando Ode Ao Tempo e mande pra gente!

00:00 / 00:00
outros vídeos desta música
repetir qualidade Automático
Outros vídeos desta música
00:00 / 00:00
Automático

Cifra Club Pro

Aproveite o Cifra Club com benefícios exclusivos e sem anúncios
7 dias grátis
Cifra Club Pro
Aproveite o Cifra Club com benefícios exclusivos e sem anúncios
7 dias grátis
OK