Cifra Club

Aprenda

Saudades do Tempo

Maneva

Tab de baixo: Principal
(Intro antes de iniciar o verso com vocal)

G|-----|
D|-----|
A|-5-6-|
E|-----|
B|-----|

Saudades do tempo... 

G|-----------------------------------|
D|---------5-4-----------------------|
A|-7---5-7-----5-----------------5---|
E|---7-----------7--5--------5-7---7-|
B|--------------------55-5-8---------|

Sorrisos, lembranças...

G|--------------------------------------|
D|---------5-4--------------------------|
A|-7---5-7-----5-----------------5---5-6|
E|---7-----------7--5--------5-7---7----|
B|--------------------55-5-8------------|

Praia, viagens...

G|--------------------------------------|
D|---------5-4--------------------------|
A|-7---5-7-----5-----------------5---5-6|
E|---7-----------7--5--------5-7---77---|
B|--------------------55-5-8------------|

Sempre felizes...

G|--------------------------------------|
D|---------5-4--------------------------|
A|-7---5-7-----5-----------------5---5-6|
E|---7-----------7--5--------5-7---7----|
B|--------------------55-5-8------------|

Contava as estrelas

G|----------------------------|
D|---------5-4----------------|
A|-7---5-7--------------------|
E|---7-------------5--------5-|
B|-------------------55-5-8---|

Fazia minha boca

G|------------------------------------|
D|---------5-4------------------------|
A|-7---5-7---------------------5---5-6|
E|---7------------5--------5-7---7----|
B|------------------55-5-8------------|

Nas manhãs nubladas...

G|-----------------------------------|
D|---------5-4-----------------------|
A|-7---5-7-----5-----------------5---|
E|---7-----------7--5--------5-7---7-|
B|--------------------55-5-8---------|

à noite, no fogo...

G|--------------------------------------|
D|---------5-4--------------------------|
A|-7---5-7-----5-----------------5---5-6|
E|---7-----------7--5--------5-7---7----|
B|--------------------55-5-8------------|

Como se seus ouvidos...

G|--------------------------------------|
D|---------5-4--------------------------|
A|-7---5-7-----5-----------------5---5-6|
E|---7-----------7--5--------5-7---77---|
B|--------------------55-5-8------------|

O som tomava forma

G|--------------------------------------|
D|---------5-4--------------------------|
A|-7---5-7-----5-----------------5---5-6|
E|---7-----------7--5--------5-7---7----|
B|--------------------55-5-8------------|

Marcas de batom...no peito...  Abraços...

G|----------------------------------------| 
D|-------------------------------------5--|
A|-7-----------------------------5---5---5|
E|---7-5-------------7-7-7-5---5---5------|
B|-------5---------5----------------------|

e, com desconhecidos,

G|----------------------------------------| 
D|-------------------------------------5--|
A|-7-----------------------------5---5---5|
E|---7-5-------------7-7-7-5---5---5------|
B|-------5---------5----------------------|

Consciência admirável

G|----------------------------|
D|---------5-4----------------|
A|-7---5-7--------------------|
E|---7-------------5--------5-|
B|-------------------55-5-8---|

Seu cabelo ao vento...

G|---------------------------------|
D|---------5-4---------------------|
A|-7---5-7----------------------5--|
E|---7-------------5--------5-7---7|
B|-------------------55-5-8--------|

Ascendeu ao azul do céu...

G|------------------------------------|
D|---------5-4------------------------|
A|-7---5-7-----5------------------5---|
E|---7-----------77--5--------5-7---7-|
B|---------------------55-5-8---------|

Vi a ponta dos seus pés...

G|------------------------------------|
D|------------5-4---------------------|
A|-7---5-77-7-----7-5--------------5--|
E|---7----------------5--------5-7---7|
B|----------------------55-5-8--------|

Essa ponte é feita 2x:

G|--------------------------------------|
D|---------5-4--------------------------|
A|-7---5-7-----5-----------------5---5-6|
E|---7-----------7--5--------5-7---7----|
B|--------------------55-5-8------------|

Como se seus ouvidos...

G|----------------------------|
D|---------5-4----------------|
A|-7---5-7--------------------|
E|---7-------------5--------5-|
B|-------------------55-5-8---|

O som tomava forma...

G|----------------------------|
D|---------5-4----------------|
A|-7---5-7--------------------|
E|---7-------------5--------5-|
B|-------------------55-5-8---|

Marcas de batom

G|----------------------------|
D|---------5-4----------------|
A|-7---5-7--------------------|
E|---7-------------5--------5-|
B|-------------------55-5-8---|

e, com desconhecidos,...

G|------------------------------------|
D|---------5-4------------------------|
A|-7---5-7---------------------5---5-6|
E|---7------------5--------5-7---7----|
B|------------------55-5-8------------|

Consciência admirável...

G|----------------------------------------------| 
D|---------------------------------------55-----|
A|-7-----------------------------5---5------5---|
E|---7-5-------------7-7-7-5---5---5---5--------|
B|-------5---------5----------------------------|

O seu cabelo ao vento...

G|------------------------------------------| 
D|---------------------------------------5--|
A|-7-----------------------------5---5-----5|
E|---7-5-------------7-7-7-5---5---5---5----|
B|-------5---------5------------------------|

Ascendeu ao azul do céu...

G|------------------------------------------| 
D|---------------------------------------5--|
A|-7-----------------------------5---5-----5|
E|---7-5-------------7-7-7-5---5---5---5----|
B|-------5---------5------------------------|

Vi a ponta dos seus pés

G|----------------------------------------| 
D|-------------------------------------5--|
A|-7-----------------------------5---5---5|
E|---7-5-------------7-7-7-5---5---5------|
B|-------5---------5----------------------|

(quando ele repete)    entre olhares...

G|--------------------------------------|
D|---------5-4--------------------------|
A|-7---5-7-----5-----------------5---5-6|
E|---7-----------7--5--------5-7---7----|
B|--------------------55-5-8------------|

                       entre olhares...

G|----------------------------------------|
D|---------5-4----------------------------|
A|-7---5-7-----5-----------------5---5-6-7|
E|---7-----------7--5--------5-7---7------|
B|--------------------55-5-8--------------|
Composição de TALES DE POLLI
Colaboração e revisão:
  • Iker Ikizera
2.061 exibições

0 comentários

Mostrar mais comentários

Conseguiu tocar?

2 Tocaram 0 Ainda não

Grave um vídeo tocando Saudades do Tempo e mande pra gente!

00:00 / 00:00
outros vídeos desta música
repetir qualidade Automático
Outros vídeos desta música
00:00 / 00:00
Automático

Cifra Club Pro

Aproveite o Cifra Club com benefícios exclusivos e sem anúncios
7 dias grátis
Cifra Club Pro
Aproveite o Cifra Club com benefícios exclusivos e sem anúncios
7 dias grátis
OK