Cifra Club

Aprenda

Sei Lá

Maneva

Cifra: Principal (violão e guitarra)
Tom: D#
Solo intro:
E|-----------------------------------------------------|
B|---4---4---4------------4---4-------4---4h6----------|
G|---5---5---5---3---5------------5--------------------|
D|-----------------------------------------------------|
A|-----------------------------------------------------|
E|-----------------------------------------------------|


E|---------------------------------------------------------|
B|---3---3---4---3---4---3------------------4--------------|
G|-----------------------------------3---5------5---3---5--|
D|--------------------------3h5--5-------------------------|
A|---------------------------------------------------------|
E|---------------------------------------------------------| x2

Cm     Ab     Bb                  G               Cm
Sei lá, como não cedo aos fatos e já desisto de tentar
      Ab                  Bb     G  Cm
Já cansei de ver eu me machucar
     Ab       Bb                G                    Cm
Tentei esquecer as promessas jogando as memórias pro ar
       Ab
Mas fazer o que?
         Bb
Se eu respiro ar
 G       Cm                         G
A solidão, me dobrou e me jogou ao chão
         Cm                 G
Amarga dor, me roía no interior
        Ab           Bb
E me marcou, abriu corte que sangra as memórias do amor

  Cm     Ab       Bb                  G                  Cm
Nem sei, se as verdades que digo faz par com que sinto sei lá
          Ab                Bb      G
Sei que derramei sal do meu olhar
Cm     Ab         Bb               G                Cm
Lembrei, de uma manhã gelada o ar era fumaça a embaçar
         Ab              Bb
Lembro que sorriu vendo eu chorar
G           Cm                                  G
Não temos chão, tenho amigos que se mostram irmãos
            Cm                             G
Não temo a dor, pois sem ela não existe o amor
    Ab                Bb
A cicatriz, é o que nos faz lembrar que o passado é real
Composição de Tales de Polli
Colaboração e revisão:
  • Danilo Silva
  • Pedro Kowalski
2.722 exibições
    • ½ Tom
    • A
    • Bb
    • B
    • C
    • Db
    • D
    • Eb
    • E
    • F
    • F#
    • G
    • Ab
  • Adicionar à lista

    0 comentários

    Mostrar mais comentários

    Conseguiu tocar?

    0 Tocaram 0 Ainda não

    Grave um vídeo tocando Sei Lá e mande pra gente!

    00:00 / 00:00
    outros vídeos desta música
    repetir qualidade Automático
    Outros vídeos desta música
    00:00 / 00:00
    Automático

    Cifra Club Pro

    Aproveite o Cifra Club com benefícios exclusivos e sem anúncios
    7 dias grátis
    Cifra Club Pro
    Aproveite o Cifra Club com benefícios exclusivos e sem anúncios
    7 dias grátis
    OK