Cifra Club

Aprenda

Peladinha

Manitu

Cifra: Principal (violão e guitarra)
tom: D
Riff 1:
E|-------17-------17-------17-------17-------17----------- \
B|----15-------15-------15-------15-------15----15-15-----  \
G|-18-------18-------18-------18-------18--------------18-   \
                                                             \
Riff 2:                                                       \
E|-------17-------17-------17-------17-------17-----------      \
B|----15-------15-------15-------15-------15-----17-15----       >intro e
G|-18-------18-------18-------18-------18--------------18-      / depois do
                                                              / refrão(2e 3)
Riff 3:                                                      /
E|--------------------------------------------------------   /
B|-17--14-15----------------------------------------------  /
G|-----------16----14-16-14------------------------------- / 
D|--------------16----------------------------------------/

Riff 4:
E|-------------------------------------------------------- \
B|-17-15-14-----------------------------------------------  \
G|----------16-14-11--------------------------------------   \
                                                             > primeira frase
Riff 5:                                                     / das partes  
E|--------------------------------------------------------  /  1 e 2
B|-15-14-12----------------------------------------------- /
G|----------14-11-11--------------------------------------/

Riff 6:
E|-5---------------------------------5-----7-7-7-7-5-8---- \
B|----8-7-7-8-5-5/7-5---5/7-5-7-5------8-7----------------  \
G|--------------------7-----------7-----------------------   \
                                                             \  refrão
Riff 7:                                                      /
E|-5-----7-7-7-7-5----------------------------------------   /
B|---8-7-----------8-7-5-7-5------------------------------  /
G|-------------------------------------------------------- /

Riff 8:
E|-5-----7-7-7-12-12-12-12-12-12-12-12--10---------------- \
B|---8-7--------------------------------------------------  > final
G|-------------------------------------------------------- /


INTRO: D, G, A (riff 1 e 2)

    D       G           A                 (riff 4)
Peladinha linda ainda bem que é só pra mim
    D       G           A
Porque não dizer do jeito que veio ao mundo
    D       G           A 
Te ver imaginar de outro jeito é impossível
    D       G           A                         G
O que se quer agora é ter você todinha nua só pra mim

G       A   (riff 6 e 7)
Só pra mim(2x)

INTRO (riff 2)

    D        G           A                  (riff 5)
Porque se intimidar diante do que dá prazer 
    D        G           A
As intenções são boas isso vai te fazer bem
    D        G           A
A vida é assim mesmo meio doida de intender
    D        G            A                          G
Seu visual tá lindo porque não entrar no clima só pra mim

G       A   (riff 6 e 7)
Só pra mim(2x)

INTRO (riff 3)

 D   G      A
Peladinha linda
                         D  
Foi o senhor quem fez você pra mim
   G         A
Quem fez você pra mim
 D   G     A
Foi só pra mim

G       A   (riff 6 e 7)
Só pra mim(2x)

Fechar com riff 8
Composição de Alexandre Maia
Colaboração e revisão:
  • Bruno Soares
6.479 exibições
    • ½ Tom
    • A
    • Bb
    • B
    • C
    • Db
    • D
    • Eb
    • E
    • F
    • F#
    • G
    • Ab
  • Adicionar à lista

    0 comentários

    Ver todos os comentários

    Conseguiu tocar?

    0 Tocaram 0 Ainda não

    Grave um vídeo tocando Peladinha e nos envie!

    00:00 / 00:00
    Outros vídeos desta música
    Repetir Qualidade Automático
    Outros vídeos desta música
    00:00 / 00:00
    Automático

    Cifra Club Pro

    Aproveite o Cifra Club com benefícios exclusivos e sem anúncios
    Cifra Club Pro
    Aproveite o Cifra Club com benefícios exclusivos e sem anúncios
    OK