Cifra Club

Aprenda

Vagabundo Confesso

Manitu

Cifra: Principal (violão e guitarra)
tom: G
Intro.(G, C) 
E|-13-13-13-13-15-13-13-13-13---13-13-13-13-13-15-13-12-
B|------------------------------------------------------
G|----------------------------12------------------------
D|------------------------------------------------------

E|------------------------------------------------------
B|-15-13-12---------------------------------------------
G|----------14-12----12----14-16--12---12---------12-14-
D|----------------14----14-----------14---14-14-14------

E|-----------------------------------------------12-----
B|--------------------------------------------------13--
G|-15-15-15-12-------------12---12----------12-14-----12
D|-------------14-12-14-14---14----14-14-14-------------

E|------------------------------------------------------
B|------------------------------------------------------
G|----12------------12----------------------------------
D|-14---14-12-14-12-------------------------------------


  G                            C
Sou vagabundo eu confesso, da turma de 71
G                            C
Já rodei o mundo e nunca pude encontrar
G                            C
Lugar melhor para um vagabundo, que um rio à beira mar
G                            C
Odoiá odofiaba salve a minha mãe Iemanjá 
G                            C
Que foi que me deram pra levar
                            G
Pra dona Janaína que é sereia do mar
                          C  
Pente de osso laços e fitas 
                                 G
Pra dona Janaína que é moça bonita
        C      Em
Que é moça bonita

  Em7          A       Am            Em      Em7       A
Café na cama eu gosto, com suco de laranja, mamão  iehhre
        Am            Em
E um fino em cima da mesa
        Em7     A            Am      Em
Amanhã quando você, quando você for trabalhar 
Em7     A               Am             Em
Tome cuidado que é pra não me acordar
    Em7   A                 Am                  Em
Eu durmo tarde, a noite é minha companheira 
                      C                               G
Salve o amor salve a amizade, a malandragem, a capoeira 
A capoeira

A|--------------------------------
E|-3-3-1-3-3-1-3-1-1-1-1-1-1-1-3--
Composição de Alexandre Maia
Colaboração e revisão:
  • Bruno Soares
22.793 exibições
    • ½ Tom
    • A
    • Bb
    • B
    • C
    • Db
    • D
    • Eb
    • E
    • F
    • F#
    • G
    • Ab
  • Adicionar à lista

    0 comentários

    Ver todos os comentários

    Conseguiu tocar?

    0 Tocaram 0 Ainda não

    Grave um vídeo tocando Vagabundo Confesso e nos envie!

    00:00 / 00:00
    Outros vídeos desta música
    Repetir Qualidade Automático
    Outros vídeos desta música
    00:00 / 00:00
    Automático

    Cifra Club Pro

    Aproveite o Cifra Club com benefícios exclusivos e sem anúncios
    Cifra Club Pro
    Aproveite o Cifra Club com benefícios exclusivos e sem anúncios
    OK