Cifra Club

La Vacaloca

Manu Chao

Cifra: Principal
exibições 9.180
Tom: C
1°guitarra
|----------------------| 
|-10-10-10-10-10-10-10-|
|----------------------|
|----------------------|
|----------------------|
|----------------------|

2° guitarra
|----12----12-|
|-10----10----|
|-------------|A
|-------------|
|-------------|
|-------------|

|----14----14-|
|-12----12----|
|-------------|E7
|-------------|
|-------------|
|-------------|

A
Pal cementerio se va
A                E7
La vaca de mala leche
E7
Pal cementerio se va
E7              A
Inocente condenada...
A
Pal cementerio se va
A                E7
La vaca de mala leche
E7
Pal cementerio se va
E7               A
Ni dios le va perdonar...
A
Bailemos todos el vacaloca
A              E7
Ese ritmo terminal
E7
Bailemos todos el vacaloca
E7                        A
Bailemos todos hasta el final...

A
Pal cementerio se va 
A                E7
La vaca de mala leche
E7
Pal cementerio se va
E7
Pudriéndose la sociedad...
                     ...A
Bailemos todos el vacaloca
A            E7
Ese ritmo terminal
E7
Bailemos todos el vacaloca
E7                       A
Bailemos todos hasta el final...

A                            E7
Ai vai ai vai ai vacaloca ai vai
E7                           A
Ai vai ai vai ai vacaloca ai vai

Final
|----12----12-10-10-------|
|-10----10----------13-12-|
|-------------------------|repete o Final até 
|-------------------------|termina a misica
|-------------------------|
|-------------------------|

Am            G
Calavera no llora
G            Am
Serenata de amor
Am            G
Calavera no llora
G          Am
No tiene corazon
Acordes para:
    Composição: Manu ChaoColaboração e revisão:
    • Alisson Miqueletto

    0 comentários

      mostrar mais comentários

      Conseguiu tocar?

      0tocaram0ainda não

      Grave um vídeo tocando La Vacaloca e mande pra gente!

      00:00 / 00:00
      outros vídeos desta música
      repetirqualidadeautomática
      Outro vídeos desta música
        00:00 / 00:00
        automática
        OK