Cifra Club

Reloj

Manuel Garcia

Cifra: Principal (violão e guitarra)
tom: E
Intro:

e||-7---7---7--5---5---5--4---4---4--7---7-9h7--5---5---5---|
B||---------------------------------------------------------|
G||---7---7------5---5------4---4------7---9h7----5---5-----| C#m 
D||---------------------------------------------------------|
A||---------------------------------------------------------|
E||-0----------0----------0----------0----------0-----------|

C#m                                                            B 
Sonó el reloj me voy a levantar, haré un café que me despierte más, el
                     A                           F#m 
día esta helado como ayer parece que no para de llover, donde pusiste
          E 
mi abrigo café,

e||-7---7---7-----5---5---5----4---4---4--7---7-9h7----5---5---5---4---4---4
B||-------------------------------------------------------------------------
G||---7---7---------5---5--------4---4------7---9h7------5---5-------4---4--
D||-------------------------------------------------------------------------
A||-------------------------------------------------------------------------
E||-0-------------0------------0----------0------------0-----------0--------
ese mismo que yo uso cuando vuelo,ese mismo que yo uso cuando vuelo
   G            D             E 
ese mismo que yo uso cuando haaaaaaa.


Intermedio: E -D -A  (x4)Do#m


C#m                                                            B 
Si sales tu no olvides comprar pan, pero sino no importa compro yo,
                                 A                           F#m 
tal vez alcance el metro de las seis y tenga tiempo para recordar algún
                          E 
fragmento de un sueño especial,

e||-7---7---7------5---5---5----4---4---4----7---7-9h7--5---5---5-----4---4---4
B||---------------------------------------------------------------------------
G||---7---7----------5---5--------4---4--------7---9h7----5---5---------4---4--
D||----------------------------------------------------------------------------
A||----------------------------------------------------------------------------
E||-0--------------0------------0------------0----------0-------------0--------
donde yo puedo volar a estar contigo,donde yo puedo volar a estar contigo
     G           D       E 
donde yo puedo volar haaaaaaaa.

Intermedio: E -D -A  (varias veces)


          E  D    A          E  D      A             E  D       A 
Sonó el reloj, me voy a levantar, no olvides comprar pan, no importa
       E 
compro yo (bis x2)
Composição de Manuel Garcia
1 exibições
    • ½ Tom
    • A
    • Bb
    • B
    • C
    • Db
    • D
    • Eb
    • E
    • F
    • F#
    • G
    • Ab
  • Adicionar à lista

    0 comentários

    Ver todos os comentários

    Conseguiu tocar?

    0 Tocaram 0 Ainda não

    Grave um vídeo tocando Reloj e nos envie!

    00:00 / 00:00
    Outros vídeos desta música
    Repetir Qualidade Automático
    Outros vídeos desta música
    00:00 / 00:00
    Automático

    Cifra Club Pro

    Aproveite o Cifra Club com benefícios exclusivos e sem anúncios
    Cifra Club Pro
    Aproveite o Cifra Club com benefícios exclusivos e sem anúncios
    OK