Cifra Club

Escolhi Te Esperar

Marcela Taís

Cifra: Principal
exibições 142.466
Tom: C
Intro: C  Am  Dm7  G (2x)
       F  C/E  Dm7  C  F  C  G  C

                 C                Am             Dm7        G
E|-----------2/3-----2/3--5--2/3-----2/3--5--5/7--5--3--2--------------|
B|----------------5--------------5-------------------------------------|
G|---------------------------------------------------------------------|
D|---------------------------------------------------------------------|
A|--------2------------------------------------------------------------|
E|--3--5---------------------------------------------------------------|

                     C                Am  Dm7        G
E|-------2/3--5--2/3-----2/3--5--2/3--5/7--5--3--2---------|
B|----5---------------5------------------------------------|
G|---------------------------------------------------------|
D|---------------------------------------------------------|
A|---------------------------------------------------------|
E|---------------------------------------------------------|

        F          C/E           Dm7          C  F           C               G          C
E|--8~------8--10--8--8--10--12--10--8/4--4---------------------------------------------------|
B|------10------------------------------------------------------0--1--3--3/5--3--0--1---------|
G|-------------------------------------------5--4--5--7--4h5p4--------------------------------|
D|--------------------------------------------------------------------------------------------|
A|--------------------------------------------------------------------------------------------|
E|--------------------------------------------------------------------------------------------|

C                  Am
Pra maior festa da vida
         Dm7       G
Quem convida é o amor
   C           Am
O céu acende luzes
       Dm7       G
E nos faz um favor
       F          C/E
Sinceridade no olhar
        Dm7           C
Linda canção vai embalar
      F              C
Quero encontrar meu par
           G         C
Pra minha dança começar

C              C7M
Segura a minha mão
        F           C
Você terá que me cuidar
   F           C
É teu meu coração
      G         C
Se você for meu par
Am               D7
Ninguém gosta de solidão
F                   C
Mas escolhi te esperar
F           C
Fiz uma oração
         G       C
Pra este dia chegar

Am
O amor, ele não é cego
            D7
Ele sabe os passos que precisa dar
G7
Só Deus sabe conjugar amor
     C
Afinal, é o próprio verbo amar
Fm              C   Am
O amor está tão perto

    D7           G6(9) G4(6) G(5b)(9) G

Mas só no tempo certo vai chegar
Acordes para:

    0 comentários

      mostrar mais comentários

      Conseguiu tocar?

      10tocaram0ainda não

      Grave um vídeo tocando Escolhi Te Esperar e mande pra gente!

      00:00 / 00:00
      outros vídeos desta música
      repetirqualidadeautomática
      Outro vídeos desta música
        00:00 / 00:00
        automática
        OK