Cifra Club

A Outra

Marcelo Camelo

Tab de baixo: Principal
exibições 247
G|-----------------------|------------------------|
D|---------------2-------|------------------------| x2
A|-----4-2h4p2-2---5-4---|------4-2h4p2-2---------|
E|-2-2-----------------2-|-2-2------------5-4-5-2-|

1° Verso
G|------------------------|-----------------------------------------------------|
D|---------------2--------|---------------------------------------------4-------|
A|-----4-2h4p2-2---5-4----|-----4-2h4p2--7--77--7-0-00-0-4-44-4-----------------|
E|-2-2------------------2-|-2-2------------------------------------2-22---2-4-5-|

 (se todo mundo sabe...)                                  (você com ela...)
G|------------------------------------------------------------------------------------------|
D|------------------------------------------------------------------------------------------|
A|-2-22---2--4-44--5-4-2--2-22---2--555--5-4-2--2---2----------------------5--5-5-7-8-7-8-7-|
E|------2-------------------- -2------------------2---2-0~-0-2-4--5-5--6-6------------------|

''Agent ria..."
G|--------------|---------------|
D|----3~--------|-----------=---|
A|----------5~--|-2-222---------|
E|-2~---2~------|--------0-000-1|

2° Verso
G|------------------------|-----------------------------------------------------|
D|---------------2--------|---------------------------------------------4-------|
A|-----4-2h4p2-2---5-4----|-----4-2h4p2--7--77--7-0-00-0-4-44-4-----------------|
E|-2-2------------------2-|-2-2------------------------------------2-22---2-4-5-|

  (não dá mais pra fingir...)                             (senhora desse amor...)
G|-----------------------------------------------------------------------------------------------|
D|-------------------------------------------------------------------------------------3~-2~-----|
A|-2-22---2--4-44--5-4-2--2-22---2--555--5-4-2--2---2----------------------2-22-4-5--4~-----4-4~-|
E|------2-------------------- -2------------------2---2-0~-0-2-4--5-5--6-6-----------------------|
Composição: Marcelo CameloColaboração e revisão:
  • Izaackque Diaz

0 comentários

    mostrar mais comentários

    Conseguiu tocar?

    0tocaram0ainda não

    Grave um vídeo tocando A Outra e mande pra gente!

    00:00 / 00:00
    outros vídeos desta música
    repetirqualidadeautomática
    Outro vídeos desta música
      00:00 / 00:00
      automática
      OK