Cifra Club

Janta

Marcelo Camelo

Cifra: Principal (violão e guitarra)
tom: C
[Intro] C  Am  C  Am

Parte 1 de 2
  C               Am
E|----3-0-3/5-3-0---------------------------|
B|-1--1-1-0---0-0--1----3--1--3/5-5\3--1----|
G|-0--0------------2------------------------|
D|-2---------------2--2---------------------|
A|-3---------------0------------------------|
E|------------------------------------------|

Parte 2 de 2
   C                  Am
E|-----3---0--------------------------------|
B|-----1---1----3--1-------0----------------|
G|-----0-0------0-----0h2--0--0-----0----0--|
D|---2-------2--2----------0----0h2--0h2----|
A|-3------------------0---------------------|
E|------------------------------------------|

[Primeira Parte]
                         
C                Am  C                    Am
Eu quis te conhecer,   mas tenho que aceitar
     C            Am                    G
Caberá ao nosso amor o eterno ou o não dá
 G#°        Am          G/B
Pode ser cruel a eternidade
            F           G        C   G
Eu ando em frente por sentir vontade

C                 Am C                Am
Eu quis te convencer, mas chega insistir
     C                       Am      G
Caberá ao nosso amor por o que há de vir
 G#°      Am           G/B
Pode ser a eternidade má
            F           G        C   G
Eu ando em frente pra sentir saudade

[Segunda Parte]

 C                             Am
Paper clips and crayons in my bed
C                          Am
Everybody thinks that I’m sad
C                        Am                G
I'll take a ride in melodies and bees and birds
 G#°          Am   G/B
Will hear my words
            F               G        C   G
Will be both us and you and them together

C                    Am     C                       Am
I can forget about myself trying to be everybody else
C                           Am  G
I feel alright that we can go away
G#°            Am  G/B
And please my day
              F              G       C    G
I’ll let you stay with me if you surrender

[Dedilhado Estrofes]

Parte 1 de 4
  C               Am
E|----3-0-3/5-3-0---------------------------|
B|-1--1-1-0---0-0--1----3--1--3/5-5\3--1----|
G|-0--0------------2------------------------|
D|-2---------------2--2---------------------|
A|-3---------------0------------------------|
E|------------------------------------------|

Parte 2 de 4
   C               Am
E|----3-0-3/5-3-0---------------------------|
B|-1--1-1-0---0-0--1----3--1--3/5-----------|
G|-0--0------------2------------------------|
D|-2---------------2--2---------------------|
A|-3---------------0------------------------|
E|--------------------------------3---------|

Parte 3 de 4
   G                    G#º     Am
E|---0----1---3/8-7---------7---------------|
B|-3------------------------6-------3---1---|
G|-----0----0---------0---7---7-----2---2---|
D|--------0---------5---6---------2---2---2-|
A|---2--------------------------0-----------|
E|-3----------------------------------------|

Parte 4 de 4
        G/b             Am
E|-3/5--3-----------------------------------|
B|--------0---0---0---0-----1--3-6--5--3----|
G|------------------------------------------|
D|----------2-------------2------7--5--3----|
A|------2-------5---3---0-------------------|
E|------------------------------------------|

[Passagens]

Parte 1 de 2
   C                G
E|--------------------------0---------------|
B|----------1-----------3-----3-------------|
G|-----0--------0-----0---0-----------------|
D|---2----2---2---2-------------------------|
A|-3----------------------------------------|
E|------------------3-----------------------|

Parte 2 de 2
   C               Am
E|------------------------------------------|
B|---------1--------------------------------|
G|-----0-------0--------2-------------------|
D|---2---2---2---2----2---2---2---2---------|
A|-3----------------0-----------------------|
E|--------------------------0---3-----------|
00:00 / 00:00
Outros vídeos desta música
Repetir
Outros vídeos desta música
Composição de Marcelo Camelo
659.129 exibições
  • Simplificar cifra
    • ½ Tom
    • A
    • Bb
    • B
    • C
    • Db
    • D
    • Eb
    • E
    • F
    • F#
    • G
    • Ab
  • Adicionar à lista

    0 comentários

    Ver todos os comentários

    Entre para oCifra Club PRO

    Tenha acesso a benefícios exclusivos no App e no Site

    • Chega de anúncios

    • Prioridade de compra em lançamentos

    • Mais recursos no app do Afinador

    • Atendimento Prioritário

    • Descontos nos produtos Cifra Club

    • Ajude a produzir mais conteúdo

    00:00 / 00:00
    Capítulos
    • Início
    • Tocando a música
    • Acordes da música
    • Tocando Introdução
    • Ensinando Dedilhado da Introdução
    • Tocando Estrofes
    • Ensinando Dedilhado das Estrofes
    • Ensinando Passagens
    • Encerramento

    Cifra Club Pro

    Aproveite o Cifra Club com benefícios exclusivos e sem anúncios
    Cifra Club Pro
    Aproveite o Cifra Club com benefícios exclusivos e sem anúncios
    OK