Cifra Club

Nas Mãos de Deus

Marcos Antônio

Cifra: Principal (violão e guitarra)
Selo Cifra Club: esta cifra foi revisada para atender aos critérios oficiais da nossa Equipe de Qualidade.
tom: G
Intro acordes: G  Em  C  D (2x)

Solo de guitarra:
E|7-----------------------7-8-10-3-------------------------3-5-7-0-------------------------0-2-3-2-|
B|-------------------------------------------------------------------------------------------------|
G|-------------------------------------------------------------------------------------------------|
D|-------------------------------------------------------------------------------------------------|
A|-------------------------------------------------------------------------------------------------|
E|-------------------------------------------------------------------------------------------------|

E|7-----------------------7-8-10-3-------------------------3-5-7-0-------------------------0-2-3---|
B|-----------------------------------------------------------------------------------------------3-|
G|-------------------------------------------------------------------------------------------------|
D|-------------------------------------------------------------------------------------------------|
A|-------------------------------------------------------------------------------------------------|
E|-------------------------------------------------------------------------------------------------|

G
Muitos só querem ver o meu fim
Em
Torcem para não ver o meu sucesso
C                       Am
Fala mal de mim às escondidas
  D4(7)                          D
E vende a qualquer preço a minha vida
  G
Melhor que estar no agrado dos homens
Em
É estar no querer do Senhor
C                          Am
Ele é quem me conhece por dentro
  D
E quis fazer de mim um adorador

         Bm        Em              Bm
Pode atirar quantas pedras que quiserem
     C               Am
Estas pedras não me ferem
       C                 G   D
Porque estou nas mãos de Deus
             Bm         Em             Bm
Se estou nas mãos de um Deus que tem poder
       C            Am
Eu vou conseguir vencer
      C  D     G
Todos inimigos meus

Final acordes: D#  F  G

Solo de guitarra no final:
E|3-----------------------3-5-6---5-----------------------5-6-8-10-|
B|-----------------------------------------------------------------|
G|-----------------------------------------------------------------|
D|-----------------------------------------------------------------|
A|-----------------------------------------------------------------|
E|-----------------------------------------------------------------|
Outros vídeos desta música
3.530 exibições
    • ½ Tom
    • A
    • Bb
    • B
    • C
    • Db
    • D
    • Eb
    • E
    • F
    • F#
    • G
    • Ab
  • Adicionar à lista

Afinação da cifra

Afinador online

    0 comentários

    Ver todos os comentários

    Entre para o Cifra Club PRO

    Tenha acesso a benefícios exclusivos no App e no Site

    • Chega de anúncios

    • Mais recursos no app do Afinador

    • Atendimento Prioritário

    • Aumente seu limite de lista

    • Ajude a produzir mais conteúdo

    Cifra Club Pro

    Aproveite o Cifra Club com benefícios exclusivos e sem anúncios
    Cifra Club Pro
    Aproveite o Cifra Club com benefícios exclusivos e sem anúncios
    OK