Cifra Club

Aprenda

Sem Me Controlar

Marcos & Belutti

Cifra: Principal (violão e guitarra)
tom: A
[Intro]  F#m  D9  A9  F#m
         F#m  D9  A9  F#m

E|----------------------|
B|-3/5-3-2--------------|
G|---------3/4-2--------|
D|---------------4/6-4--|
A|----------------------|
E|----------------------|

[Riff 1]

E|-----5-5/7-5----------|
B|-5-5---------7-5-5/7--|
G|----------------------|
D|----------------------|
A|----------------------|
E|----------------------|

[Riff 2]

E|-0h2-0----------------|
B|--------3-2--0h2------|
G|----------------------|
D|----------------------|
A|----------------------|
E|----------------------|

F#m               D
  A carne é fraca, não sou de lata
A                        E     (Riff 1)
  O corpo pede, eu vou obedecer
F#m             D         (Riff 2)
  É meu instinto tudo o que sinto
A                         E
  Eu vou em busca do que dá prazer

[Pré-Refrão]

             D
Me deixei levar
E
Ah, foi de momento
 F#m
Não foi sem querer
           D  E
Percebi no ar aquele cheiro
          F#m
Que vem pra me enlouquecer

[Refrão]

              A
Sem me controlar, te pego
      E                 F#m
Te abraço, te beijo na boca
             D
Você se segurando
                A
Me diz não ser louca
                      E
Quer ter tudo no seu tempo
                  F#m         D
Tudo num certo momento  Ai Ai Ai

              A
Sem me controlar, te pego
      E                 F#m
Te abraço, te beijo na boca
             D
Você se segurando
                A
Me diz não ser louca
                      E
Quer ter tudo no seu tempo
                  F#m         D
Tudo num certo momento  Ai Ai Ai

E|------------------------------|
B|-3/5-3-2----------------------|
G|---------3/4-2----------------|  (2x)
D|---------------4/6-4--2-2-2-4-|
A|------------------------------|
E|------------------------------|

[Pré-Refrão]

             D
Me deixei levar
E
Ah, foi de momento
 F#m
Não foi sem querer
           D  E
Percebi no ar aquele cheiro
          F#m
Que vem pra me enlouquecer

[Refrão]

              A
Sem me controlar, te pego
      E                 F#m
Te abraço, te beijo na boca
             D
Você se segurando
                A
Me diz não ser louca
                      E
Quer ter tudo no seu tempo
                  F#m         D
Tudo num certo momento  Ai Ai Ai

              A
Sem me controlar, te pego
      E                 F#m
Te abraço, te beijo na boca
             D
Você se segurando
                A
Me diz não ser louca
                      E
Quer ter tudo no seu tempo
                  F#m         D
Tudo num certo momento  Ai Ai Ai

[Final]  F#m  D9  A9  F#m
         F#m  D9  A9  F#m

E|------------------------------|
B|-3/5-3-2----------------------|
G|---------3/4-2----------------|  (2x)
D|---------------4/6-4--2-2-2-4-|
A|------------------------------|
E|------------------------------|
Compositor não encontrado.
458.742 exibições
    • ½ Tom
    • A
    • Bb
    • B
    • C
    • Db
    • D
    • Eb
    • E
    • F
    • F#
    • G
    • Ab
  • Adicionar à lista

    0 comentários

    Ver todos os comentários
    00:00 / 00:00
    Outros vídeos desta música
    Repetir Qualidade Automático
    Outros vídeos desta música
    00:00 / 00:00
    Automático

    Cifra Club Pro

    Aproveite o Cifra Club com benefícios exclusivos e sem anúncios
    Cifra Club Pro
    Aproveite o Cifra Club com benefícios exclusivos e sem anúncios
    OK