Cifra Club

Aprenda

Amigo de Deus

Marcus Salles

Cifra: Principal (violão e guitarra)
tom: D
Intro:

(Riff 1)
E|-----------------------------------------------|
B|-----------------------------------------------|
G|-----------------------------------------------|
D|--4/7--7-----4----2---4---4/7----4---2---------|
A|--4/7--7-----4----2---4---4/7----4---2---------|
E|--2/5--5-----2----0---2---2/5----2---0---------|

(Riff 2)
E|-----------------------------------------------|
B|-----------------------------------------------|
G|-----------------------------------------------|
D|--4/7---4--2---4---4/5----4---2----------------|
A|--4/7---4--2---4---4/5----4---2----------------|
E|--2/5---2--0---2---2/3----2---0----------------|
    A                G

(Riff 2)
A                                    G
Andar com Deus, falar de Deus, ter vida santa
A                                G
Me consagrar, profetizar, ter autoridade

 D          Bm7          D       C       G         A
Tudo isso é bom, mas se eu obedecer.. Serei conhecido

      D9       E
Como amigo de Deus
  D9        A     D        E
Amigo de Deus, amigo de Deus
      D9            A         D       E
Eu quero ser conhecido como amigo de Deus
  D9      A      D        E
Amigo de Deus, amigo de Deus

F#m7            D9
Que conta areia, que conta estrelas
F#m7                  D/F#
Mas vive a promessa, amigo de Deus
F#m7                  D9
Que conta areia, que conta estrelas
F#m7              D/F#                C    G/B                  A
Mas vive a promessa, eu sou amigo de Deus       Eu quero ser amigo..
Compositor não encontrado.
Colaboração e revisão:
  • Gabriel
6.615 exibições
    • ½ Tom
    • A
    • Bb
    • B
    • C
    • Db
    • D
    • Eb
    • E
    • F
    • F#
    • G
    • Ab
  • Adicionar à lista

    0 comentários

    Ver todos os comentários
    00:00 / 00:00
    Outros vídeos desta música
    Repetir Qualidade Automático
    Outros vídeos desta música
    00:00 / 00:00
    Automático

    Cifra Club Pro

    Aproveite o Cifra Club com benefícios exclusivos e sem anúncios
    Cifra Club Pro
    Aproveite o Cifra Club com benefícios exclusivos e sem anúncios
    OK