Cifra Club

Laranja

Maria Gadú

Cifra: Principal
exibições 240.691
Tom: G
[Intro]  Em

E|--------------------------------------------------------|
B|--------------------------------------------------------|
G|------12(HA)----------------------------7--5b-----------|
D|----------------12(HA)------------------7--5b----5h7p5--|
A|-------------------------X-X-5-5-X----------------------|
E|-0------------------------------------------------------|

E|--------------------------------------------------------|
B|--------------------------------------------------------|
G|------12(HA)------------------------7--5b---------------|
D|--------------12(HA)----------------7--5b---------------|
A|----------------------X-X-5-5-X-------------------------|
E|-0------------------------------------------------------|

E|--------------------------------------------------------|
B|--------------------------------------------------------|
G|------12(HA)------------------------7--5b---------------|
D|--------------12(HA)----------------7--5b----5h7p5------|
A|----------------------X-X-5-5-X-------------------------|
E|-0------------------------------------------------------|

E|--------------------------------------------------------|
B|--------------------------------------------------------|
G|------12(HA)------------------------7--5b---------------|
D|--------------12(HA)----------------7--5b---------------|
A|----------------------X-X-5-5-X-------------------------|
E|-0-----------------------------------------0------------|

[Verso]

E|---------------------------------------------------------------|
B|---------------------------------------------------------------|
G|---------------------------------12(HA)-12(HA)-----------------|
D|--12(HA)-12(HA)--------7-5b---------------------------7-5b-----|
A|---------------0-0-5-5------7p5---------------0-0-5-5------7p5-|
E|0-------------------------------0------------------------------|

E|---------------------------------------------------------------|
B|---------------------------------------------------------------|
G|---------------------------------12(HA)-12(HA)-----------------|
D|--12(HA)-12(HA)--------7-5b---------------------------7-5b-----|
A|---------------0-0-5-5------7p5---------------0-0-5-5-----7p5--|
E|0-------------------------------0----------------------------0-|

[Solo]

E|--------7-10-9-8-7---------------------------------------------|
B|------8------------8p7----------------7-8p7--------------------|
G|----9------------------9p7-------7/9--------9-7-10b12--10--8---|
D|-10------------------------9\7-5-------------------------------|
A|---------------------------------------------------------------|
E|---------------------------------------------------------------|

E|-10----10-----10--------------------------------10-10--12-12---|
B|-10b12-10b12--10b12r10p8------------------------8--8---10-10---|
G|--------------------------9--7---------------7--7--7---9--9----|
D|--------------------------------------7-9-10-------------------|
A|-------------------------------7-9-10--------------------------|
E|---------------------------------------------------------------|

[Passagem]

E|------10---9----7----5-----------------------------------------|
B|---------------------------------------------------------------|
G|---------------------------------------------------------------|
D|---------------------------------------------------------------|
A|------9----7----5----3-----------------------------------------|
E|---------------------------------------------------------------|

Em
Ô menina, parece índia Ianomami seu cabelo preto breu

Simula um toque, que desabroche

Esse teu casto mastigado pelo meu

                 Em                  Em7M
Se quer tamanho vou te inspirar a alma
                    Em7              A7
E afogar a calma salivando um beijo teu
 C7/9                B7/9   Em
Siga a seta e diga que sou seu

( Em )

Em
Ô menina, parece índia Ianomami seu cabelo preto breu

Simula um toque, que desabroche

Esse teu casto mastigado pelo meu

                 Em                  Em7M
Se quer tamanho vou te inspirar a alma
                    Em7              A7
E afogar a calma salivando um beijo teu
 C7/9                B7/9   Em
Siga a seta e diga que sou seu

( Em )

 Am             Am7M          Am7             D7/9
Venha sem chão me ensina a solidão de ser só dois
                 Am   Am7M
Depois te levo pra casa
         Am7                          D7/9
E o teu laranja que me faz ficar bem mais
Acordes para:

    0 comentários

      mostrar mais comentários

      Conseguiu tocar?

      18tocaram1ainda não

      Grave um vídeo tocando Laranja e mande pra gente!

      00:00 / 00:00
      outros vídeos desta música
      repetirqualidadeautomática
      Outro vídeos desta música
        00:00 / 00:00
        automática
        OK