Cifra Club

Eu Sei De Cor

Marília Mendonça

Cifra: Academy-sertanejo (violão e guitarra)
Selo Cifra Club: esta cifra foi revisada para atender aos critérios oficiais da nossa Equipe de Qualidade.
tom: A
[Intro] A9  E  F#m  D

[Tab - Solo Intro]

Parte 1 de 3
E|-----5-----5-5\4-4\2-2p0-0-2-2/4---------------------|
B|-----------------------------------------------------|
G|-4/6-------6-6\4-4\2-2p1-1-2-2/4---------------------|
D|-----------------------------------------------------|
A|-----------------------------------------------------|
E|-----------------------------------------------------|

Parte 2 de 3
E|--5\4-4\2-2p0---0-0h2--------------------------------|
B|--------------2-------2------------------------------|
G|--6\4-4\2-2p1---1-1h2--------------------------------|
D|--------------2-------2------------------------------|
A|-----------------------------------------------------|
E|-----------------------------------------------------|

Parte 3 de 3
E|---0-2p0---0-2p0-------------------------------------|
B|-2-------2-------3\2----------7----------------------|
G|---1-2p1---1-2p1-----2-------------------------------|
D|-2-------2-------4\2-0---5/7--7----------------------|
A|-----------------------------------------------------|
E|-----------------------------------------------------|

[Primeira Parte]

A9
É
                      C#m
Já tá ficando chato, né
                         F#m
A encheção de saco, pois é
                               D
Prepara, que eu já tô me preparando

Enquanto cê tá indo

          A9
Eu to voltando
                               E
E todo esse caminho eu sei de cor

Se eu não me engano
                     F#m
Agora vai me deixar só
                              D
O segundo passo é não me atender
                        B7
O terceiro é se arrepender
                                 E
Se o que dói em mim doesse em você

[Refrão]

 A9
Deixa
                         E
Deixa mesmo de ser importante
                                F#m
Vai deixando a gente pra outra hora
                                 D
Vai tentar abrir a porta desse amor

Quando eu tiver jogado a chave fora

 A9
Deixa
                         E
Deixa mesmo de ser importante
                                F#m
Vai deixando a gente pra outra hora
                              D
E quando se der conta, já passou
          E
Quando olhar pra trás, já fui embora

[Solo] A9  E  F#m  D

[Tab - Solo]

Parte 1 de 3
E|-----5-----5-5\4-4\2-2p0-0-2-2/4---------------------|
B|-----------------------------------------------------|
G|-4/6-------6-6\4-4\2-2p1-1-2-2/4---------------------|
D|-----------------------------------------------------|
A|-----------------------------------------------------|
E|-----------------------------------------------------|

Parte 2 de 3
E|--5\4-4\2-2p0---0-0h2--------------------------------|
B|--------------2-------2------------------------------|
G|--6\4-4\2-2p1---1-1h2--------------------------------|
D|--------------2-------2------------------------------|
A|-----------------------------------------------------|
E|-----------------------------------------------------|

Parte 3 de 3
E|---0-2p0---0-2p0-------------5-----------------------|
B|-2-------2-------3\2---------------------------------|
G|---1-2p1---1-2p1-----2---4/6-------------------------|
D|-2-------2-------4\2-0-------------------------------|
A|-----------------------------------------------------|
E|-----------------------------------------------------|

[Primeira Parte]

A9                                E
   E todo esse caminho eu sei de cor

Se eu não me engano
                     F#m
Agora vai me deixar só
                              D
O segundo passo é não me atender
                        B7
O terceiro é se arrepender
                                 E
Se o que dói em mim doesse em você

[Refrão]

 A9
Deixa
                         E
Deixa mesmo de ser importante
                                F#m
Vai deixando a gente pra outra hora
                                 D
Vai tentar abrir a porta desse amor

Quando eu tiver jogado a chave fora

 A9
Deixa
                         E
Deixa mesmo de ser importante
                                F#m
Vai deixando a gente pra outra hora
                              D
E quando se der conta, já passou
          E
Quando olhar pra trás, já fui embora

( A9  E  F#m )

[Tab - Solo Final]

Parte 1 de 3
E|-----5-----5-5\4-4\2-2p0-0-2-2/4---------------------|
B|-----------------------------------------------------|
G|-4/6-------6-6\4-4\2-2p1-1-2-2/4---------------------|
D|-----------------------------------------------------|
A|-----------------------------------------------------|
E|-----------------------------------------------------|

Parte 2 de 3
E|--5\4-4\2-2p0---0-0h2--------------------------------|
B|--------------2-------2------------------------------|
G|--6\4-4\2-2p1---1-1h2--------------------------------|
D|--------------2-------2------------------------------|
A|-----------------------------------------------------|
E|-----------------------------------------------------|

Parte 3 de 3
E|---0-2p0---0-2p0--------------------5----------------|
B|-2-------2-------3\2---------5-----------------------|
G|---1-2p1---1-2p1-----2----------4/6------------------|
D|-2-------2-------4\2-0---4/6-------------------------|
A|-----------------------------------------------------|
E|-----------------------------------------------------|

                              D
E quando se der conta, já passou
          E                      A
Quando olhar pra trás, já fui embora
Outros vídeos desta música
    900 exibições
    • Simplificar cifra
      • ½ Tom
      • A
      • Bb
      • B
      • C
      • Db
      • D
      • Eb
      • E
      • F
      • F#
      • G
      • Ab
    • Adicionar à lista

    Afinação da cifra

    Afinador online

      0 comentários

      Ver todos os comentários

      Entre para o Cifra Club PRO

      Tenha acesso a benefícios exclusivos no App e no Site

      • Chega de anúncios

      • Badges exclusivas

      • Mais recursos no app do Afinador

      • Atendimento Prioritário

      • Aumente seu limite de lista

      • Ajude a produzir mais conteúdo

      Cifra Club Pro

      Aproveite o Cifra Club com benefícios exclusivos e sem anúncios
      Cifra Club Pro
      Aproveite o Cifra Club com benefícios exclusivos e sem anúncios
      Ops (: Contenido disponible sólo en portugués.
      OK