Cifra Club

Infiel

Marília Mendonça

Cifra: Principal
exibições 2.021.435
Tom: G
Intro: Am  Em  D  A (Pausa)
Solo Intro - Parte 1 de 2
E|---------------------------------------------|
B|-7h8\5-----8-8-7-8-10-8---5---8--------------|
G|-------5~------------------------------------|
D|-----------9-9-7-9-10-9---5---9--------------|
A|---------------------------------------------|
E|---------------------------------------------|

Solo Intro - Parte 2 de 2
E|---------------------------------------------|
B|-8-7-8-10-7--3-------------------------------|
G|---------------------2-4--6---4-2-4----------|
D|-9-7-9-10-7--4-------------------------------|
A|---------------------------------------------|
E|---------------------------------------------|

Primeira Parte:

Em                    C
   Isso não é uma disputa
        D             Em
Eu não quero te provocar

Descobri faz um ano 
                     C
E to te procurando pra dizer
        D            Em (Pausa)
Hoje a farsa vai acabar

                           C
Hoje não tem hora de ir embora
      D          Em
Hoje, ele vai ficar

No momento deve estar feliz
           C
E achando que ganhou
           D                     Am
Não perdi nada, acabei de me livrar

Pré-refrão:

Com certeza ele vai atrás
        Em
Mas com outra intensão
       (Pausa)
Tá sem casa, sem rumo
                    G
E você é a única opção

E agora será que aguenta
           D
A barra sozinha
     (Pausa)
Se sabia de tudo
                       Am
Se vira a culpa não é minha

O seu premio que não vale nada
         Em
Estou te    entregando
       (Pausa)
Pus as malas lá fora 
                     G
E ele ainda saiu chorando

Essa competição por amor 
                  D
Só serviu pra me machucar
                                 Am
Tá na sua mão você agora vai cuidar

De um traidor
        C
Me faça esse favor


Refrão:

 Am
Iêêê, infiel
                Em
Eu quero ver você morar num motel
               D
Estou te expulsando do meu coração
                 A
Assuma as consequências dessa traição

     Am
Iêiêiê, infiel
           Em
Agora ela vai fazer o meu papel
                D
Daqui um tempo você vai se acostumar
               A                (Pausa)
E ai vai ser a ela a quem vai enganar
                Am  Em  D  A (Pausa)
Você não vai mudar
Solo - Parte 1 de 2
E|---------------------------------------------|
B|-7h8\5-----8-8-7-8-10-8---5---8--------------|
G|-------5~------------------------------------|
D|-----------9-9-7-9-10-9---5---9--------------|
A|---------------------------------------------|
E|---------------------------------------------|


Solo Intro - Parte 2 de 2
E|---------------------------------------------|
B|-8-7-8-10-7--3-------------------------------|
G|---------------------2-4--6---4-2-4----------|
D|-9-7-9-10-7--4-------------------------------|
A|---------------------------------------------|
E|---------------------------------------------|



Pré-refrão:

Am
   O seu premio que não vale nada
         Em
Estou te    entregando
       (Pausa)
Pus as malas lá fora 
                     G
E ele ainda saiu chorando

Essa competição por amor 
                  D
Só serviu pra me machucar
                                 Am
Tá na sua mão você agora vai cuidar

De um traidor
        C
Me faça esse favor

Refrão:

 Am
Iêêê, infiel
                Em
Eu quero ver você morar num motel
               D
Estou te expulsando do meu coração
                 A
Assuma as consequências dessa traição

     Am
Iêiêiê, infiel
           Em
Agora ela vai fazer o meu papel
                D
Daqui um tempo você vai se acostumar
               A
E ai vai ser a ela a quem vai enganar

Você não vai mudar

 Am
Iêêê, infiel
           Em
Agora ela vai fazer o meu papel
                D
Daqui um tempo você vai se acostumar
               A                (Pausa)
E ai vai ser a ela a quem vai enganar

Você não vai mudar
 Am          Em
Iêêê, infiel
Solo Final
E|--------------------------------------------------|
B|-7h8\5-----8-8-7-8-10-8---5---8-------------------|
G|-------5~---------------------------2-4--6-4-2-4--|
D|-----------9-9-7-9-10-9---5---9-------------------|
A|--------------------------------------------------|
E|--------------------------------------------------|
Acordes para:

    0 comentários

      mostrar mais comentários
      00:00 / 00:00
      outros vídeos desta música
      repetirqualidadeautomática
      Outro vídeos desta música
        00:00 / 00:00
        automática
        Capítulos
        • Tocando a música
        • Dicas Iniciais / Equipamentos
        • Acordes da música
        • Tocando Introdução e Primeira Parte
        • Ritmo da música
        • Tocando o Pré-Refrão
        • Tocando o Refrão
        • Tocando o Final
        • Tocando o Solo
        • Solo Introdução - Parte 1 de 2
        • Solo Introdução - Parte 2 de 2
        • Solo - Parte 1 de 2
        • Solo Final
        • Encerrameto
        • Ficha Técnica
        OK