Cifra Club

Leão

Marília Mendonça

Cifra: Principal (violão e guitarra)
Selo Cifra Club: esta cifra foi revisada para atender aos critérios oficiais da nossa Equipe de Qualidade.
tom: F# (forma dos acordes no tom de E) Capotraste na 2ª casa
[Intro] E  G#  C#m
        A  E  G#  C#m

[Tab - Intro]

E|-----12-11-9-----------------------------------------|
B|-9-9---------12-9-9--9------9------9------9\7--------|
G|-----------------------9-11---9-11---9-11-----9-6----|
D|-----------------------------------------------------|
A|-----------------------------------------------------|
E|-----------------------------------------------------|

[Primeira Parte]

[Tab - Riff]

Parte 1 de 2
E|-----5-----5-----------0-----0-----------------------|
B|-------5-----5---5-------0-----0---0-----------------|
G|-5/6-----6-----6-----1-----1-----1-------------------|
D|-----------------------------------------------------|
A|-----------------------------------------------------|
E|-----------------------------------------------------|

Parte 2 de 2
E|---4-----4----------4-----4--------------------------|
B|-----4-----4---4------5-----5---5--------------------|
G|-5-----5-----5----6-----6-----6----------------------|
D|-----------------------------------------------------|
A|-----------------------------------------------------|
E|-----------------------------------------------------|

Parte 1 de 2 - variação
E|-----5-----5-----------0-----7-5-4h5p4p0-------------|
B|-------5-----5---5-------0---------------0-----------|
G|-5/6-----6-----6-----1-----1-------------------------|
D|-----------------------------------------------------|
A|-----------------------------------------------------|
E|-----------------------------------------------------|

       A                  E
Que o Sol da manhã te dissolva
        G#                  C#m
Seu vampiro de filmes pastelão
 A                   E
Mas quem vai nos julgar?
         G#           C#m
Sou seu despenteado leão

[Segunda Parte]

A                        E
  Sei que cê me entende bem
                        G#
Sempre foge quando namora

Se você não ama ninguém
C#m                            A
    Porque tá me escutando agora?

     E
Sua linda, tão louca
           G#
Minha Monalisa, tira a minha roupa
 C#m             A
Me fascina nessa   sina
             E
Me beija na boca
                G#
Minha mulher menina
                    C#m
Me ensina ser vida louca
             A
Teu olho piscina
                       E
Me afoga e faz boca a boca
              G#
Renova minha rima
                         C#m
Vem de garfo que hoje é sopa, menina

[Terceira Parte]

 A                   E   G#  C#m
Mas quem vai nos julgar?
 A            E  G#  C#m
Vilão particular

   A              E
Se eu subo nesse palco aqui
     G#            C#m
Foi Deus que me criou assim
      A         E                G#
E os holofotes vem ao meu encontro
            C#m           A
É que eu te amo e nem te conto
      E                 G#   C#m
Não, não posso ser seu santo

 A             E
Sou fato ou hipótese
 G#                 C#m
Sou rei, cigano ou nômade
 A                 E         G#
Desculpe esse meu jeito soberano
         C#m                A
Mas hoje é por você que eu canto
E                  G#   C#m
É por você que eu canto

[Quarta Parte]

A                        E
  Sei que cê me quer também
                   G#
Marília leoa gostosa
                    C#m
Posso te ligar meu bem?
                          A
Que que cê tá fazendo agora?
     E                  
Tão lindo, tão louco
             G#
Meu grande amigo
                  C#m
Depois de você os outros são outros
         A                 E
Cê tá fodido, vamo fazer amor
                      G#
Cantar o sertanejo antigo
             C#m
Me beija na boca, amor
 A                     E
Pode ser até que você não me dê moral
  G#                       C#m
Até me ver no espaço pela banca de jornal

[Final] A  E  G#  C#m
        A  E  G#  C#m
Outros vídeos desta música
1.171.885 exibições
    • ½ Tom
    • A
    • Bb
    • B
    • C
    • Db
    • D
    • Eb
    • E
    • F
    • F#
    • G
    • Ab
  • Adicionar à lista

Afinação da cifra

Afinador online

    0 comentários

    Ver todos os comentários

    Entre para o Cifra Club PRO

    Tenha acesso a benefícios exclusivos no App e no Site

    • Chega de anúncios

    • Mais recursos no app do Afinador

    • Atendimento Prioritário

    • Aumente seu limite de lista

    • Ajude a produzir mais conteúdo

    Capítulos
    • Apresentação
    • Tocando a Música
    • Dicas Iniciais
    • Acordes
    • Ensinando o Ritmo
    • Tocando o Solo da Intro
    • Ensinando o Solo da Intro
    • Tocando a Linha da Guitarra
    • Ensinando a Linha da Guitarra
    • Ensinando a Variação da Linha da Guitarra
    • Encerramento

    Cifra Club Pro

    Aproveite o Cifra Club com benefícios exclusivos e sem anúncios
    Cifra Club Pro
    Aproveite o Cifra Club com benefícios exclusivos e sem anúncios
    OK