Cifra Club

Easter

Marillion

Cifra: Principal (violão e guitarra)
Selo Cifra Club: esta cifra foi revisada para atender aos critérios oficiais da nossa Equipe de Qualidade.
tom: G
E|---------3----------2-(3)-2-----------0-----------0--------------------------|
B|-----------3----------------3-----------0-----------1------------------------|
G|-------------0----2-----------2-----------0-----0-----0----------------------|
D|-------0--------0-------------------2---------2------------------------------| (4x)
A|-----2----------------------------2---------3--------------------------------|
E|---3----------------------------0--------------------------------------------|

E|---------2-----------3------------3-----------0-----------------------0------|
B|-------3---3-----------1------------1-----------0---------3-------------1----|
G|-----2-------2-----0-----0------2-----2-----------0---------2-------0-----2--|
D|---0-------------2-----------2--------------2-----------0-----0---2----------|
A|---------------3-----------0--------------2-----------0---------3------------|
E|----------------------------------------0-----------2------------------------|

E|---------0-----------3-------------2-(3)-2-----------3-----------3-----------|
B|-----------3-----------3---------3---------3-----------1-----------1---------|
G|-------------0-----------0-----2-------------2-----0-----0-----2-----2-------|
D|-------0-----------0---------0-------------------2-----------2---------------|
A|-----2-----------2-----------------------------3-----------0-------------2---|
E|---3-----------3-------------------------------------------------------0-----|

E|-----0-----------------------0-------------3-----------2-----------0---------|
B|-------0---------3-------------1---------3---3-------3---3-------3---3-------|
G|---------0---------2-------0-----0-----2-------2---2-------2---2-------2-----|
D|---2-----------0-----0---2-----------0-----------0-----------0-----------0---|
A|-------------0---------3-----------------------------------------------------|
E|-----------2-----------------------------------------------------------------|

E|-------2---------------------------------------------------------------------|
B|-----3---3-------------------------------------------------------------------|
G|---2-------2-----------------------------------------------------------------|
D|-------------0---------------------------------------------------------------|
A|-----------------------------------------------------------------------------|
E|-----------------------------------------------------------------------------|

E|----2---------3---------2---------3------------------------------------------|
B|----3---------3---------3---------3------------------------------------------|
G|----2---------0---------4---------0------------------------------------------| (4x)
D|----0---------2---------4---------2------------------------------------------|
A|---(0)--------2---------2---------3------------------------------------------|
E|--------------0--------------------------------------------------------------|

E|---------0-----------0-----------0-------------------------------------------|
B|-------1---1-------1---1-------1---1-----------------------------------------|
G|-----3-------3---3-------3---3-------3---------------------------------------|
D|---3-----------2-----------0-----------2-------------------------------------|
A|-----------------------------------------------------------------------------|
E|-----------------------------------------------------------------------------|

E|--------------------------------------------------------------14-15~---------|
B|-12~-10~-10s12------------------------------------------17~-17---------------|
G|--------------11~-11s12-11-----7s9~-11p9--12p9--/s16~p14---------------------|
D|--------------------------12~-9----------------------------------------------|
A|-----------------------------------------------------------------------------|
E|-----------------------------------------------------------------------------|

E|---14-15-15b(17)~--14-15-17b(19)~-------------14h15p14h15p14-----------------|
B|-17-------------------------------15~--15s17~----------------15--------------|
G|-------------------------------------16--------------------------------------|
D|-----------------------------------------------------------------------------|
A|-----------------------------------------------------------------------------|
E|-----------------------------------------------------------------------------|

E|-----------------------------------------------------------------------------|
B|------------------------------------------------15-15b(17)~-15b(17)~---------|
G|-14s12s11-12~-11--------(11)s12~-11~-------16-14-----------------------------|
D|----------------12-9-12-------------12~--14----------------------------------|
A|-----------------------------------------------------------------------------|
E|-----------------------------------------------------------------------------|

E|-----------------------------------------------------------------------------|
B|-19b(20)-19~-------------19b(20)-19~--------------------20-------------------|
G|-------------19-16h19p16------------19-16-19b(20)~--19~----19b(20)~----------|
D|-----------------------------------------------------------------------------|
A|-----------------------------------------------------------------------------|
E|-----------------------------------------------------------------------------|

E|-14h15p14---------14h15p14h15p14------17b(19)~--17b(19)~--17~----------------|
B|---------15---------------------15-------------------------------------------|
G|-----------14s16~-----------------14-----------------------------------------|
D|-----------------------------------------------------------------------------|
A|-----------------------------------------------------------------------------|
E|-----------------------------------------------------------------------------|

E|-14h15p14h15p14--------------14h15p14h15p14----17b(19)~-17b(19)~-17~---------|
B|---------------15--------------------------15--------------------------------|
G|-----------------14s16h19p16~----------------14------------------------------|
D|-----------------------------------------------------------------------------|
A|-----------------------------------------------------------------------------|
E|-----------------------------------------------------------------------------|

E|-----------------------------------------------------------------------------|
B|-----------------------------------------------------------------------------|
G|-(11)s12~-11--12--9--7--7~-5--4-4h5p4h5p4--2--4~-----------------------------|
D|-----------------------------------------------------------------------------|
A|-----------------------------------------------------------------------------|
E|-----------------------------------------------------------------------------|

E|-------------7h10p7h10p7-----------------------------------------------------|
B|-----------7-------------7---------------------------------------------------|
G|---------7-----------------7-------------------------------------------------|
D|-------9---------------------9-----------------------------------------------|
A|----10-------------------------10--------------------------------------------|
E|-----------------------------------------------------------------------------|

E|-----------------------------------------------------------------------------|
B|--------17~--15-----15--------17--15-----------------------------------------|
G|-12~s16---------14~---16~--16--------14~--12~--------------------------------|
D|-----------------------------------------------------------------------------|
A|-----------------------------------------------------------------------------|
E|-----------------------------------------------------------------------------|

                                  G
E|--------------------------------3--------------------------------------------|
B|--------------------------------3--------------------------------------------|
G|----12p11-9/7-5p4h5p4h5p4/2-0---0--------------------------------------------|
D|--------------------------------0--------------------------------------------|
A|--------------------------------2--------------------------------------------|
E|--------------------------------3--------------------------------------------|
Outros vídeos desta música
    7.139 exibições
      • ½ Tom
      • A
      • Bb
      • B
      • C
      • Db
      • D
      • Eb
      • E
      • F
      • F#
      • G
      • Ab
    • Adicionar à lista

    Afinação da cifra

    Afinador online

      0 comentários

      Ver todos os comentários

      Entre para o Cifra Club PRO

      Tenha acesso a benefícios exclusivos no App e no Site

      • Chega de anúncios

      • Badges exclusivas

      • Mais recursos no app do Afinador

      • Atendimento Prioritário

      • Aumente seu limite de lista

      • Ajude a produzir mais conteúdo

      Cifra Club Pro

      Aproveite o Cifra Club com benefícios exclusivos e sem anúncios
      Cifra Club Pro
      Aproveite o Cifra Club com benefícios exclusivos e sem anúncios
      OK