Cifra Club

Aprenda

Killing Strangers

Marilyn Manson

Cifra: Principal (violão e guitarra)
tom: Bb
[Intro/Verse]

E|------------------------------------------------|
B|------(10)----10-------------(0)----------------|
G|-------10--10-10--------10-12-12b14-12b14-12----|
D|-12-12-----------12--12----------------------12-|
A|------------------------------------------------|
E|------------------------------------------------|

E|------------------------------------------------|
B|------(10)----10-------------(0)----------------|
G|-------10--10-10--------10-12-12b14-12b14-12-10-|
D|-12-12-----------12--12-------------------------|
A|------------------------------------------------|
E|------------------------------------------------|


[Chorus]

E|----------------------------------------|
B|---6----5----6----5----6-----5----5---3-|
G|-7----7----7----7----7---7-7----7---5---|
D|----------------------------------------|
A|----------------------------------------|
E|----------------------------------------|

E|----------------------------------------|
B|---6----5----6----5----6-----5----5-----|
G|-7----7----7----7----7---7-7----7-------|
D|----------------------------------------|
A|----------------------------------------|
E|----------------------------------------|


[Pre-Verse]

E|------------------|
B|-5---5---5------5-|
G|-7b9-7b9-7--7---5-|
D|--------------7---|
A|------------------|
E|------------------| 3x

E|--------------------|
B|-5---5---5--5---5---|
G|-7b9-7b9-7--7b9-7-5-|
D|--------------------|
A|--------------------|
E|--------------------|


[Solo]

E|------------------|
B|-5---5---5------5-|
G|-7b9-7b9-7--7---5-|
D|--------------7---|
A|------------------|
E|------------------| 3x

E|--------------------|
B|-5---5---5--5---5---|
G|-7b9-7b9-7--7b9-7-5-|
D|--------------------|
A|--------------------|
E|--------------------|

E|---------------------|
B|-8-----8--10-10------|
G|-10b12-10-------7-10-|
D|---------------------|
A|---------------------|
E|---------------------| 3x

E|---------------------------------------|
B|-13----13-----10----10-----8------6----|
G|-15b17-15b17--12b14-12b14--10b12--8b10-|
D|---------------------------------------|
A|---------------------------------------|
E|---------------------------------------|
Composição de Marilyn Manson / Tyler Bates
Colaboração e revisão:
  • jeanpiere
1.668 exibições
    • ½ Tom
    • A
    • Bb
    • B
    • C
    • Db
    • D
    • Eb
    • E
    • F
    • F#
    • G
    • Ab
  • Adicionar à lista

    0 comentários

    Ver todos os comentários

    Conseguiu tocar?

    0 Tocaram 0 Ainda não

    Grave um vídeo tocando Killing Strangers e nos envie!

    00:00 / 00:00
    outros vídeos desta música
    repetir qualidade Automático
    Outros vídeos desta música
    00:00 / 00:00
    Automático

    Cifra Club Pro

    Aproveite o Cifra Club com benefícios exclusivos e sem anúncios
    Cifra Club Pro
    Aproveite o Cifra Club com benefícios exclusivos e sem anúncios
    OK