Cifra Club

Valentine's Day

Marilyn Manson

Cifra: Principal (violão e guitarra)
tom: Ab
x = muted strings
. = palm mute 

Main riff :

B|------------------|---------|-----------------|---------|
G|-----10---8---7-8-|---------|-----10---8---7--|---------|
D|---9----9---9-----|-3 vezes-|---9----9---9--9-|-uma vez-|
A|-8----------------|---------|-8---------------|---------|
E|------------------|---------|-----------------|---------|

Bridge : ("Flies are waiting...")

E|--------------------------|
B|--------------------------|
G|--------------------------|
D|-10-----12------13------6-|
A|--x------x-------x------x-|
E|--8-----10------11------4-|

E|--------------------------|
B|--------------------------|
G|--------------------------|
D|-10-----12------13------6-|
A|--------------------------|
E|--------------------------|

Chorus : ("In the shadow of the valley of death")

E|-------------------------------------------------|
B|---------------------------------------------x-x-|
G|---------------------------------------------x-x-|
D|-3---6---5--3------------------------6---5-3-x-x-|
A|-3---6---5--3------------------------6---5-1-x-x-|
E|-1---4---3--1-(bass slide goes here)-4---3-1-x-x-|

("Slit our wrists, and send us to heaven")

   a#  c#  f
B|-------------------------|
G|-----6-------------------| apenas toque os 2 acordes (a# e c#) em
D|-8---6---3-3-3-3-3-3-3-3-| "The first flower after the flood"
A|-8---4---3-3-3-3-3-3-3-3-|
E|-6-------1-1-1-1-1-1-1-1-|
pm         . . . . . . . .
Composição de Marilyn Manson / Twiggy Ramirez
Colaboração e revisão:
  • Marco Antonio
3.010 exibições
    • ½ Tom
    • A
    • Bb
    • B
    • C
    • Db
    • D
    • Eb
    • E
    • F
    • F#
    • G
    • Ab
  • Adicionar à lista

    0 comentários

    Ver todos os comentários

    Conseguiu tocar?

    2 Tocaram 0 Ainda não

    Grave um vídeo tocando Valentine's Day e nos envie!

    00:00 / 00:00
    Outros vídeos desta música
    Repetir Qualidade Automático
    Outros vídeos desta música
    00:00 / 00:00
    Automático

    Cifra Club Pro

    Aproveite o Cifra Club com benefícios exclusivos e sem anúncios
    Cifra Club Pro
    Aproveite o Cifra Club com benefícios exclusivos e sem anúncios
    OK