Cifra Club

Aprenda

Mario Theme

Mario Bros

Tab de baixo: Principal
G |-9-9-9----9-12---------------------------|
D |-------10---------10-----------9---------|
A |---------------10----10-----12---13-12-10|
E |-------------------------12--------------|

G |-----------------------------13-14----13-----------|
D |---10----------9----------14-------15----14-11-12-9|   (2x)
A |------10----12---13-12-10--------------------------|
E |---------12----------------------------------------|

G |-12--------------------------------12-------------17-17-17--12---------------------------------------|
D |----16-15-13-14-------10-----10-12----16-15-13-14--------------16-15-13-14-------10----10-12-13-12-10| (2x)
A |----------------10-11-----11-----------------------------------------------10-11----11---------------|
E |-----------------------------------------------------------------------------------------------------|

G |--------------------------------------------------------------------|
D |-11-11-11-11-12-11-------11-11-11-11-12-14---11-11-11-11-12-14------|
A |-------------------12-10---------------------------------------12-10|
E |--------------------------------------------------------------------|

G |-9-9-9----9-12---|
D |-------10--------|
A |---------------10|
E |-----------------|

G |-9-------------10-10-10------14-14-14-12-10-9-----------9-------------10-10-10-------10-10-10-9------|
D |---10----------------------9------------------10----------10------------------------------------12-10|   
A |------10-11-12----------12-----------------------12-10-------10-11-12----------10-12-----------------|
E |-----------------------------------------------------------------------------------------------------|

G |------------------------|
D |-10-----------9---------| (2x)
A |----10-----12---13-12-10|
E |--------12--------------|

G |-12--------------------------------12-------------17-17-17--12---------------------------------------|
D |----16-15-13-14-------10-----10-12----16-15-13-14--------------16-15-13-14-------10----10-12-13-12-10| (2x)
A |----------------10-11-----11-----------------------------------------------10-11----11---------------|
E |-----------------------------------------------------------------------------------------------------|

G |------------------------------------------|
D |-11-11-11-11-12-11-------11-11-11-11-12-14|
A |-------------------12-10------------------|
E |------------------------------------------|
Compositor não encontrado.
Colaboração e revisão:
  • Augusto
3.777 exibições

0 comentários

Ver todos os comentários

Conseguiu tocar?

0 Tocaram 0 Ainda não

Grave um vídeo tocando Mario Theme e nos envie!

00:00 / 00:00
Outros vídeos desta música
Repetir Qualidade Automático
Outros vídeos desta música
00:00 / 00:00
Automático

Cifra Club Pro

Aproveite o Cifra Club com benefícios exclusivos e sem anúncios
Cifra Club Pro
Aproveite o Cifra Club com benefícios exclusivos e sem anúncios
OK