Cifra Club

Aprenda

Dança da Solidão

Marisa Monte

Cifra: Versão 2 (violão e guitarra)
tom: C
 
   Introdução: Fm  Bbm6 F7/A G7 C7 

  E|---------------------|-----------------------|---------------------|----------------
  B|---------------------|-----------------------|---------------------|----------------
  G|----0-1-0---------0--|-------0------0------0-|----0-------0------0-|-----------0----
  D|--3---------3---3----|----3-------3------3---|--3------------------|----------------
  A|3-------------3------|--2-------2------1-----|1---------3------3---|--3-3-----3-----
  E|---------------------|-----------------------|-------4-------4-----|-4-4----4-------
                                              
                                            
  E|-------------------|------------|-----|    
  A|-------------------|------------|-----|   
  G|--------0---------0|-1----------|-0---|  
  D|-------------------|-3----------|-3---|  
  A|-----2--------2----|-3----------|-3---|   
  E|--3--------3-------|-4----------|-1---|

  ****************************************************************************************

  E|----------------------------------      |   Esse é um floreio que vem depois
  A|----------------------------------      |   da introdução,logo depois da 
  G|----0-1-0--1-2--------------------       \  Marisa cantar "solidão é lava..."
  D|--3-------------------------------       /
  A|-3--------------------------------      | 
  E|----------------------------------      |


             Fm  F7            Bbm
Solidão é lava que cobre tudo 
                       Fm
amargura em minha boca
    G7                 C7
sorri seus dentes de chumbo
              Fm    F7           Bbm
solidão palavra cavada no coração 
                 Fm
resignado e mudo
          G7                             C7    Fm    F7/A 
no compasso da desilusão  
        Bbm Gm7(b5)   C7(b9) F7
desilusão, desilusão 
         F7(b9)    Bbm
danço eu dança você 
                  Gm7(b5) C7(b9) Fm
da dança da solidão 
                    G7     C7            Fm 
Caméllia ficou viúva, Joana se apaixonou 
                  F7                        Bbm
Maria tentou a morte por causa do seu amor 
                         Gm7(b5)   C7(b9)       Fm
meu pai sempre me dizia "meu filho tome cuidado 
                          G7           C7           Fm
quando eu penso no futuro não esqueço o meu passado"


                    G7   C7                   Fm
Quando vem a madrugada meu pensamento vagueia 
                          F7                      Bbm
Corro os dedos na viola contemplando a lua cheia 
                    Gm7(b5)                   C7(b9)    Fm
Apesar de tudo existe uma fonte de água pura 
                       G7             C7               Fm
Quem beber daquela água não terá mais amargura
Composição de Paulinho da Viola
Colaboração e revisão:
  • Pedro Peixoto
  • Plinio Maia
  • Lígia Mello
52.447 exibições
    • ½ Tom
    • A
    • Bb
    • B
    • C
    • Db
    • D
    • Eb
    • E
    • F
    • F#
    • G
    • Ab
  • Adicionar à lista

    0 comentários

    Ver todos os comentários

    Conseguiu tocar?

    2 Tocaram 1 Ainda não

    Grave um vídeo tocando Dança da Solidão e nos envie!

    00:00 / 00:00
    Outros vídeos desta música
    Repetir Qualidade Automático
    Outros vídeos desta música
    00:00 / 00:00
    Automático

    Cifra Club Pro

    Aproveite o Cifra Club com benefícios exclusivos e sem anúncios
    Cifra Club Pro
    Aproveite o Cifra Club com benefícios exclusivos e sem anúncios
    OK