Cifra Club

Por Te Amar Assim

Marlon & Maicon

Cifra: Principal (violão e guitarra)
Selo Cifra Club: esta cifra foi revisada para atender aos critérios oficiais da nossa Equipe de Qualidade.
tom: C
[Intro] C  Em7  F  Am   Dm

        
      F  Em  Dm  C
E|-------------------------------------------------------------------------|
B|---/5~~-5-6-7-7~~--13b15-13-12-13--12-13-8---6-5-6-5-------5h6-5---------|
G|-----------------------------------------------------5----5------5h7-5~--|
D|-5------------------------------------------------------/5---------------|
A|-------------------------------------------------------------------------|
E|-------------------------------------------------------------------------|

[Primeira Parte]

C              G                   Am
Você ficou em mim, dentro de minha alma
                 Em                    F
Feito uma tempestade que nunca se acalma
               C                    Dm  G
Amor que me pegou de um jeito inesperado

C               G                Am
Teu nome é um grito preso na garganta
                 Em              F
Te vendo acompanhada, parecendo santa
                C                  Dm  G
E eu querendo ser quem está do seu lado

[Pré-Refrão]

 Em  F                                      C
Será... do jeito que você quiser, assim será
                                   F
Mesmo que toda vida tenha que esperar
              Em7                Dm   G
Eu ficarei guardado neste sentimento

[Refrão]

               C
Por te amar assim
                         Em
A felicidade é o meu castigo
                                  F
Será que tanto amor pra mim é proibido
                       C/E                Dm   G 
E estou morrendo aos poucos por sonhar contigo

               C
Por te amar assim
                               Em
Desejo a tua boca sem poder beijá-la
                                F
Desejo a tua pele sem poder tocá-la
                C/E              Dm  G  G#°
E queimo de vontade a cada madrugada
              Am   Em
Por te amar assim
               F    G
Por te amar assim
 
Por te amar

[Segunda Parte]

C               G                Am
Assim vou caminhando numa corda bamba
                Em               F
E sigo as tuas marcas feito tua sombra
              C                         Dm  G
Preso neste amor que eu quero noite e dia

C               G                   Am
O tempo vai passando como um vento forte
              Em                   F
E eu aqui largado a minha própria sorte
               C                  Dm  G
Contando os segundos pra você ser minha

[Pré-Refrão]

Em  F                                      C
Será... do jeito que você quiser, assim será
                                   F
Mesmo que toda vida tenha que esperar
              C/E                Dm    G
Eu ficarei guardado neste sentimento

[Refrão]

               C
Por te amar assim
                         Em
A felicidade é o meu castigo
                                  F
Será que tanto amor pra mim é proibido
                       C/E                Dm    G
E estou morrendo aos poucos por sonhar contigo

               C
Por te amar assim
                               Em
Desejo a tua boca sem poder beijá-la
                                F
Desejo a tua pele sem poder tocá-la
                C/E              Dm     G  G#°
E queimo de vontade a cada madrugada
              Am   Em
Por te amar assim
               F    G
Por te amar assim
               C
Por te amar assim

( C  Em7  F  Am  Dm )

[Refrão]

               C
Por te amar assim
                         Em
A felicidade é o meu castigo
                                  F
Será que tanto amor pra mim é proibido
                       C/E                Dm    G
E estou morrendo aos poucos por sonhar contigo

               C
Por te amar assim
                               Em
Desejo a tua boca sem poder beijá-la
                                F
Desejo a tua pele sem poder tocá-la
                C/E              Dm     G  G#°
E queimo de vontade a cada madrugada
              Am   Em
Por te amar assim
               F    G
Por te amar assim
               C
Por te amar assim

[Primeira Parte]

E|--------------------------------|
B|-------------------------/8-/8--|
G|--5-7-7b9r7b9~~--9r7-5-4--------|
D|-5------------------------------|
A|--------------------------------|
E|--------------------------------|

[Segunda Parte]

E|----------------------|
B|-----6p5--------------|
G|--5------7-5-7b9r7-5--|
D|-5-5------------------|
A|----------------------|
E|----------------------|

[Terceira Parte]

E|---------------|
B|----6p5--------|
G|--5-----7-5-7--|
D|-5-5-----------|
A|---------------|
E|---------------|

[Quarta Parte]

E|--------------------------------------------------/15-/15--|
B|----13-15-15b17--13-15-15b17-13-15-15b17-15-13-12----------|
G|-12--------------------------------------------------------|
D|-----------------------------------------------------------|
A|-----------------------------------------------------------|
E|-----------------------------------------------------------|

[Quinta Parte]

E|-13p12--------13p12-------12-13-12--------12-13-15-16~-|
B|-------13-----------13-------------15---15-------------|
G|----------12-----------12------------------------------|
D|-------------------------------------------------------|
A|-------------------------------------------------------|
E|-------------------------------------------------------|

[Solo Final]

E|------------------------9-11-13-11-9-11~--11-13-14-13~-|
B|--6p7-6------6p7-6-------------------------------------|
G|--------8-6--------8-6---------------------------------|
D|-------------------------------------------------------|
A|-------------------------------------------------------|
E|-------------------------------------------------------|
Outros vídeos desta música
    370.841 exibições
      • ½ Tom
      • A
      • Bb
      • B
      • C
      • Db
      • D
      • Eb
      • E
      • F
      • F#
      • G
      • Ab
    • Adicionar à lista

    Afinação da cifra

    Afinador online

      0 comentários

      Ver todos os comentários

      Entre para o Cifra Club PRO

      Tenha acesso a benefícios exclusivos no App e no Site

      • Chega de anúncios

      • Badges exclusivas

      • Mais recursos no app do Afinador

      • Atendimento Prioritário

      • Aumente seu limite de lista

      • Ajude a produzir mais conteúdo

      Cifra Club Pro

      Aproveite o Cifra Club com benefícios exclusivos e sem anúncios
      Cifra Club Pro
      Aproveite o Cifra Club com benefícios exclusivos e sem anúncios
      Ops (: Contenido disponible sólo en portugués.
      OK