Cifra Club

She Will Be Loved

Maroon 5

Cifra: Guitarra
exibições 111.726
Tom: D#
Introdução: Cm  Bb  Cm  Bb

(Guitarra 1)


E|------------------------------------------|
B|------------------------------------------|
G|-----8--8--8--------7--7--------7---------|
D|----10-10-10--------8--8----8-------------|
A|-----------------8------------8-----------|
E|-8------------6---------------------------|


(Guitarra 2)


E|------------------------------------------|
B|-8----------------------------------------|
G|----8-------------------------------------|
D|-------10---------------------------------|
A|------------------------------------------|
E|------------------------------------------|



Primeira Parte:


E|-----------------------------------------------------|
B|-8---------------------------------------------------|
G|----8------------------------------------------------|
D|-----------------------------------------------------|
A|-----------------------------------------------------|
E|-----------------------------------------------------|


Cm                 Bb
   Beauty queen of only eighteen
  Cm                  Bb
She had some trouble with herself
Cm                 Bb
   He was always there to help her
  Cm                    Bb
She always belonged to someone else

(Guitarra 2)


E|------------------------------------------|
B|----8-----------------6-----6-------------|
G|-10---8-------10\--8-----7----------------|
D|--------10--------------------------------|
A|------------------------------------------|
E|------------------------------------------|


Cm              Bb
   I drove for miles and miles
     Cm               Bb
And wound up at your door
Cm               Bb
   I've had you so many times but 
Cm                 Bb
   Somehow I want more
        

Primeiro Refrão:

(Guitarra Base)


E|------------------------------------------|
B|-------6-----------------6----------------|
G|---8------8---8------8------8---8---------|
D|-8---8------8------8---8------8-----------|
A|------------------------------------------|
E|------------------------------------------|


E|------------------------------------------|
B|-------8-----------------10---------------|
G|---8------8---8------8-------8---8--------|
D|-8---8------8------8---8-------8----------|
A|------------------------------------------|
E|------------------------------------------|


(Guitarra 2)


E|-----------------------------------------------------|
B|-----11-----11---11----------------------------------|
G|-8-8----8-8----8-------------------------------------|
D|-----------------------------------------------------|
A|-----------------------------------------------------|
E|-----------------------------------------------------|


Eb                       Bb
   I don't mind spending everyday
Cm
   Out on your corner 
        Bb
In the pouring rain
Eb
   Look for the girl 
           Bb
With the broken smile
Cm
   Ask her if she wants 
     Ab
To stay a while
         Eb      Bb
And she will be loved
         Cm      Ab
And she will be loved


Segunda Parte:

Cm                     Bb
   Tap on my window, knock on my door
  Cm                        Bb
I    want to make you feel beautiful
Cm                   Bb
   I know I tend to get so insecure
Cm                   Bb
   It doesn't matter anymore

Cm                  Bb
   It's not always rainbows 

And butterflies
      Cm                        Bb
It's compromise that moves us along
Cm
   My heart is full and 
    Bb
My door's always open
         Cm               Bb
You can come anytime you want


Segundo Refrão:

Eb                       Bb
   I don't mind spending everyday
Cm
   Out on your corner 
        Bb
In the pouring rain
Eb
   Look for the girl 
           Bb
With the broken smile
Cm
   Ask her if she wants 
     Ab
To stay a while
         Eb      Bb
And she will be loved
         Cm      Ab
And she will be loved
         Eb      Bb
And she will be loved
         Cm      Ab
And she will be loved


Ponte:

Cm                   Bb
   I know where you hide
               Cm
Alone in your car
                  Bb
Know all of the things 

That make you who you are
Cm                  Bb
   I know that goodbye 
                 Cm
Means nothing at all
                       
Comes back and begs me 
    Bb                      Ab
To catch her every time she    falls

Cm                     Bb
   Tap on my window, knock on my door
  Cm                        Bb
I    want to make you feel beautiful


Terceiro Refrão:

Eb                       Bb
   I don't mind spending everyday
Cm
   Out on your corner 
        Bb
In the pouring rain
Eb
   Look for the girl 
           Bb
With the broken smile
Cm
   Ask her if she wants 
     Ab
To stay a while
         Eb      Bb
And she will be loved
         Cm      Ab
And she will be loved
         Eb      Bb
And she will be loved
         Cm      Ab
And she will be loved

(Solo Final – slide)


E|-11~-13~-8~-6~---15~-16~-18~-16~-11~-----------------|
B|-----------------------------------------------------|
G|-----------------------------------------------------|
D|-----------------------------------------------------|
A|-----------------------------------------------------|
E|-----------------------------------------------------|
Acordes para:

    0 comentários

      mostrar mais comentários

      Conseguiu tocar?

      1tocaram0ainda não

      Grave um vídeo tocando She Will Be Loved e mande pra gente!

      00:00 / 00:00
      outros vídeos desta música
      repetirqualidadeautomática
      Outro vídeos desta música
        00:00 / 00:00
        automática
        Capítulos
        • Tocando a música
        • Dicas Iniciais / Equipamentos
        • Acordes da Introdução
        • Tocando a Introdução
        • Introdução - Guitarra 1
        • Introdução - Guitarra 2
        • Tocando a Primeira Parte
        • Primeira Parte - Riff
        • Primeira Parte - Guitarra 2
        • Acordes do Refrão
        • Tocando o Primeiro Refrão
        • Refrão - Guitarra Base
        • Refrão - Riff
        • Tocando Segunda Parte - Ponte
        • Ritmo da Ponte
        • Tocando o Terceiro Refrão
        • Solo Final - Slide
        • Encerramento
        • Ficha Técnica
        OK