Cifra Club

Aprenda

Sal no café

Marujo Cogumelo

Cifra: Principal (violão e guitarra)
Já pensou em usar uma coleção de roupas do Cifra Club? Responda as perguntas abaixo e nos ajude nessa missão! →
tom: A
E|------------------------------------------------|
B|------------------------------------------------|
G|------------------------------------------------|    (7x)
D|--------9-----6-7-9-----------------------------|
A|-----------7------------------------------------|      
E|----7-------------------------------------------|

  Bm             E                  Bm   E
Faço cara feia e digo que tá tudo normal
 Bm             E                   Bm   E
Qualquer coisa respondo que eu dormi mal
 G                            F#
Nunca te digo o motivo desse mau humor
 Bm      E        Bm   E       G  F#
Nunca converso no elevador

Am            F                         Am
Quem vai me dizer o que é bom e o que é mau?
      F                      Am
Se no meu café vai açúcar ou sal?
        F                         E
Se as escolhas que eu faço fazem mal pra mim?

E|------------------------------------------------|
B|------------------------------------------------|
G|------------------------------------------------|    (4x)
D|--------9-----6-7-9-----------------------------|
A|-----------7------------------------------------|      
E|----7-------------------------------------------|

Bm          E                Bm     E
Quer se desapegar do mundo material
Bm              E            Bm     E
Falando coisas sobre o juízo final
G                               F#
Frases de autoajuda espalhadas pelo chão
Bm            E                 Bm    E   G  F#7
Alguém pediu ajuda e você negou atenção

Am            F                         Am
Quem vai me dizer o que é bom e o que é mau?
      F                      Am
Se no meu café vai açúcar ou sal?
        F                         E7
Se as escolhas que eu faço fazem mal pra mim?

( Bm  E )
( Bm  E )
( Bm  E )
( Bm  E  G  F#7 )
( Bm  E )
( Bm  E  G  F#7 )

Am            F                         Am
Quem vai me dizer o que é bom e o que é mau?
      F                      Am
Se no meu café vai açúcar ou sal?
        F                         E7          D  A
Se as escolhas que eu faço fazem mal pra mim?


Bm            G                         Bm
Quem vai me dizer o que é bom e o que é mau?
      G                      Bm
Se no meu café vai açúcar ou sal?
        G                         F#7          F#
Se as escolhas que eu faço fazem mal pra mim?

E|------------------------------------------------|
B|------------------------------------------------|
G|-----11-11-9-9-7---7-9-7------------7-----------| 
D|-----------------9---------9-9-7-------9--------|
A|---------------------------------9--------------|
E|------------------------------------------------|

Composição de K. Canan
Colaboração e revisão:
  • Enzo Ogliari
167 exibições
    • ½ Tom
    • A
    • Bb
    • B
    • C
    • Db
    • D
    • Eb
    • E
    • F
    • F#
    • G
    • Ab
  • Adicionar à lista

    0 comentários

    Ver todos os comentários

    Conseguiu tocar?

    1 Tocaram 0 Ainda não

    Grave um vídeo tocando Sal no café e nos envie!

    00:00 / 00:00
    Outros vídeos desta música
    Repetir Qualidade Automático
    Outros vídeos desta música
    00:00 / 00:00
    Automático

    Cifra Club Pro

    Aproveite o Cifra Club com benefícios exclusivos e sem anúncios
    Cifra Club Pro
    Aproveite o Cifra Club com benefícios exclusivos e sem anúncios
    OK