Cifra Club

Um Anjo do Céu

Maskavo

Cifra: Principal
exibições 1.454.966
Tom: B
(intro 2x) B  F#  E  B

(riff 2x)

E|-2------------------2--------------|
B|------4---2/4-2---------4---2/4-0--|
G|----4---4-------------4---4--------|
D|-----------------------------------|
A|-----------------------------------|
E|-----------------------------------|


         B
Um anjo do céu

Que trouxe pra mim
           C#m
É a mais bonita
          E      F#
A jóia perfeita
               B
Que é pra eu cuidar

Que é pra eu amar
          C#m
Gota cristalina
             E     F#
Tem toda inocência

(refrão)
 B           F#
Vem, Óh meu bem
           E
Não chore não
                B
Eu vou cantar pra você
 B           F#
Vem, Óh meu bem
           E
Não chore não
                B
Eu vou cantar pra você

(solo) B C#m E

(parte 1)

E|-------------------------------------|
B|------4-------4----------4---4-5-4---|
G|--4-4-4-4-4-4-4-4-4--4-4-4-4-4-6-4---|
D|--4-6---6-4-6---6-4--4-6---6---------|
A|-------------------------------------|
E|-------------------------------------|


(parte 2)

E|----------------------------|
B|--------4-5-5/7-5-4-5/7-5---|
G|--4-4-4-4-6-6/8-6-4-6/8-6---|
D|--6-4-6---------------------|
A|----------------------------|
E|----------------------------|


(parte 3)

E|-----------------------------------|
B|--4-5-4-5-5/7-5-7-7/9--5/7\5/7-4---|
G|--4-6-4-6-6/8-6-8-8/9--6/8\6/8-4---|
D|-----------------------------------|
A|-----------------------------------|
E|-----------------------------------|


B
Um anjo do céu

Que me escolheu
             C#m
Serei o seu porto
               E    F#
Guardião da pureza
              B
Que é pra eu cuidar

Que é pra eu amar
           C#m
Gota cristalina
             E     F#
Tem toda inocência

(refrão)

 B          F#
Vem, Óh meu bem
           E
Não chore não
                 B
Vou cantar pra você (4x)

 B          F#
Bem, Óh meu bem
           E
Não chore não......
                 B   F# E B (2x)
Vou cantar pra você

B F# E B (2x)

(refrão 4x)

(revisão - Leo Eymard)
Acordes para:
    Colaboração e revisão:

    0 comentários

      mostrar mais comentários

      Conseguiu tocar?

      132tocaram0ainda não

      Grave um vídeo tocando Um Anjo do Céu e mande pra gente!

      00:00 / 00:00
      outros vídeos desta música
      repetirqualidadeautomática
      Outro vídeos desta música
        00:00 / 00:00
        automática
        Capítulos
        • Início
        • Solo da introdução
        • Ensinando o solo
        • Acordes da introdução
        • Tocando introdução
        • Ensinando o ritmo da música
        • Acordes da primeira parte
        • Tocando primeira parte
        • Ensinando o ritmo da primeira parte
        • Acordes e ritmo do refrão
        • Tocando o refrão
        • Solo
        • Ensinando solo (parte 1)
        • Ensinando solo (parte 2)
        • Ensinando solo (parte 3)
        • Tocando o solo devagar
        • Tocando trecho (repetição)
        • Encerramento
        OK