Notificações Amigos pendentes

      Maskavo

      Um Anjo do Céu

      1.310.994 exibições
      Tom: B
      (intro 2x) B  F#  E  B
      
      (riff 2x)
      
      E|-2------------------2--------------|
      B|------4---2/4-2---------4---2/4-0--|
      G|----4---4-------------4---4--------|
      D|-----------------------------------|
      A|-----------------------------------|
      E|-----------------------------------|
      
      
               B
      Um anjo do céu
      
      Que trouxe pra mim
                 C#m
      É a mais bonita
                E      F#
      A jóia perfeita
                     B
      Que é pra eu cuidar
      
      Que é pra eu amar
                C#m
      Gota cristalina
                   E     F#
      Tem toda inocência
      
      (refrão)
       B           F#
      Vem, Óh meu bem
                 E
      Não chore não
                      B
      Eu vou cantar pra você
       B           F#
      Vem, Óh meu bem
                 E
      Não chore não
                      B
      Eu vou cantar pra você
      
      (solo) B C#m E
      
      (parte 1)
      
      E|-------------------------------------|
      B|------4-------4----------4---4-5-4---|
      G|--4-4-4-4-4-4-4-4-4--4-4-4-4-4-6-4---|
      D|--4-6---6-4-6---6-4--4-6---6---------|
      A|-------------------------------------|
      E|-------------------------------------|
      
      
      (parte 2)
      
      E|----------------------------|
      B|--------4-5-5/7-5-4-5/7-5---|
      G|--4-4-4-4-6-6/8-6-4-6/8-6---|
      D|--6-4-6---------------------|
      A|----------------------------|
      E|----------------------------|
      
      
      (parte 3)
      
      E|-----------------------------------|
      B|--4-5-4-5-5/7-5-7-7/9--5/7\5/7-4---|
      G|--4-6-4-6-6/8-6-8-8/9--6/8\6/8-4---|
      D|-----------------------------------|
      A|-----------------------------------|
      E|-----------------------------------|
      
      
      B
      Um anjo do céu
      
      Que me escolheu
                   C#m
      Serei o seu porto
                     E    F#
      Guardião da pureza
                    B
      Que é pra eu cuidar
      
      Que é pra eu amar
                 C#m
      Gota cristalina
                   E     F#
      Tem toda inocência
      
      (refrão)
      
       B          F#
      Vem, Óh meu bem
                 E
      Não chore não
                       B
      Vou cantar pra você (4x)
      
       B          F#
      Bem, Óh meu bem
                 E
      Não chore não......
                       B   F# E B (2x)
      Vou cantar pra você
      
      B F# E B (2x)
      
      (refrão 4x)
      
      (revisão - Leo Eymard)
        Composição: Quim / Patra / Marrara / MarceloColaboração e revisão:
        • Gabriel Benicio
        • Firebird
        • perdido
        • lincoln19922

        Comentários 18

        140 .
        • Dáffine Dáffine: Em 26/04/2015 13:02

          Só meu pulso que dói muito ao tocar essa música?

        • paulo.padilha.16547 paulo.padilha.16547: Em 16/12/2014 02:57

          Muito Legal ,mas toco ela em tom de Lá,mais Baixo prá Cantar.....Abraço...

        • Vinicius Vinicius : Em 25/05/2014 15:40

          Ótima música, mas toco ela na versão de Jammil e Uma Noites. É mais fácil não usa muita pestana.

        • stefany.samuel.58 stefany.samuel.58: Em 14/05/2014 15:59

          Eu Ja Aprendi Tudo :D

        • andreo.naymayer andreo.naymayer: Em 09/12/2013 20:01

          Musica linda mas ñ alcanço o tom cantando :/

        • Alexandre Alexandre: Em 08/09/2013 14:59

          show!! Sempre, canto pra minha filha, a jóia perfeita, que pra eu cuidar, pra eu amar!!

        • FaBiM FaBiM: Em 01/03/2013 12:51

          To soh com uma duvida no solo, mas eh boa :D

        • Drika Santtos Drika Santtos: Em 06/01/2013 20:43

          Muito fácil. adorei! Além de linda essa música.

        140 cancelar

        conseguiu tocar?

        • •••
        Guilherme Luís de Souza Santos5.293 visualizações
          ver covers de outras músicas »
          0:00 / 0:00
          1 versão de baixo exibições contribuição e correção
          1 versão de gaita exibições contribuição e correção
          play/pausefechar subir/descer velocidade
          6ª corda E5ª corda A4ª corda D3ª corda G2ª corda B1ª corda E
            acordes
            publicidade
            fechar
            ok