Cifra Club

Teardrop

Massive Attack

Cifra: Principal (violão e guitarra)
tom: C
[Intro]

    Asus  A       C9      G       F      G
E|-0-----0-------3-------3-------0-------0--|
B|-3-----3-------3-------3-------0-------0--|
G|-2-----3-------5-------4-------2-------4--|
D|-------3-------5-------5-------3-------5--|
A|-0-----0-------3-------5-------3-------5--|
E|-------0-------3-------3-------0-------0--|

E|-----------0-------------------------0-----|
B|---------------------3----------3----------|
G|-------2-------2-----------2---------------|
D|-------------------------------------------|
A|---0---------------------------------------|
E|-------------------------------------------|

E|-----------0-------------------------------|
B|---------------------3----------3----------|
G|-------2-------2-----------2---------2-----|
D|-------------------------------------------|
A|---0---------------------------------------|
E|-------------------------------------------|


A                     C9
(Love) Love is a verb love is a doing word
G                A
Fearless on my breath
A                C9
Gentle impulsion shakes me makes me lighter
G                A
Fearless on my breath

F
Teardrop on the fire
G               A
Fearless on my breath

A                      C9
Night, night of matter, black flowers blossom
G                A
Fearless on my breath
F
Black flowers blossom
G               A
Fearless on my breath

F
Teardrop on the fire
G               A
Fearless on my breath

A               cadd9
Water is my eye most faithful mirror
G                A
Fearless on my breath
A                    C9
Teardrop on the fire of a confession
G                A
Fearless on my breath
F
Most faithful mirror
G               A
Fearless on my breath

F
Teardrop on the fire
G                A
Fearless on my breath

( A  F  G )

( F  G  A )

F                G
It's tumbling down (as in love falling apart)
G                A
It's tumbling down (as in love falling apart)
Composição de Elizabeth Fraser / Grantley Marshall / Mushroom / Robert 3D del Naja
Colaboração e revisão:
  • Rafael PR
  • Narixx
  • Henrique Garcia
15.906 exibições
    • ½ Tom
    • A
    • Bb
    • B
    • C
    • Db
    • D
    • Eb
    • E
    • F
    • F#
    • G
    • Ab
  • Adicionar à lista

    0 comentários

    Ver todos os comentários

    Conseguiu tocar?

    4 Tocaram 0 Ainda não

    Grave um vídeo tocando Teardrop e nos envie!

    00:00 / 00:00
    Outros vídeos desta música
    Repetir Qualidade Automático
    Outros vídeos desta música
    00:00 / 00:00
    Automático

    Cifra Club Pro

    Aproveite o Cifra Club com benefícios exclusivos e sem anúncios
    Cifra Club Pro
    Aproveite o Cifra Club com benefícios exclusivos e sem anúncios
    OK