Cifra Club

Aqua Dementia

Mastodon

Cifra: Principal (violão e guitarra)
tom: G
Album: Leviathan


For the intro, you're going to need to flip your delay pedal
on where indicated to make it sound like there is another
guitar playing a split second after the first guitar...or
just get a second guitarist.
                                                         x4
d|---------------------------------------------------------|
A|----------8----------------------------------------------|
F|----9--9-----9--9--9------------7--9--9--10-9--9--10-9--*|
C|-9--------------------9--9------------------------------*|
G|----------------------------10---------------------------|
D|---------------------------------------------------------|
                                Delay on-----------------|

(0:09)
d|---------------------------------------------------------|
A|-----------7---------------------------------------------|
F|*----7--9-----7--9--7------------------------------------|
C|*-9--------------------9--8--------7--------9-------10---|
G|-----------------------------10-10------10------10-------|
D|---------------------------------------------------------|
                                  Delay on--------------|
                                                          x2
d|---------------------------------------------------------|
A|-----------7---------------------------------------------|
F|-----7--9-----7--9--7-----------------------------------*|
C|--9--------------------9--8--------7--------9----10--9--*|
G|-----------------------------10-10------10---------------|
D|---------------------------------------------------------|
                                  Delay on--------------|
(0:17)                                                    x4
d|---------------------------------------------------------|
A|----------8----------------------------------------------|
F|----9--9-----9--9--9------------7--9--9--10-9--9--10-9--*|
C|-9--------------------9--9------------------------------*|
G|----------------------------10---------------------------|
D|---------------------------------------------------------|
                                Delay on-----------------|
(0:25)
d|---------------------------------------------------------|
A|-----------7---------------------------------------------|
F|*----7--9-----7--9--7------------------------------------|
C|*-9--------------------9--8--------7--------9-------10---|
G|-----------------------------10-10------10------10-------|
D|---------------------------------------------------------|
                                  Delay on--------------|
                                                          x2
d|---------------------------------------------------------|
A|-----------7---------------------------------------------|
F|-----7--9-----7--9--7-----------------------------------*|
C|--9--------------------9--8--------7--------9----10--9--*|
G|-----------------------------10-10------10---------------|
D|---------------------------------------------------------|
                                  Delay on--------------|
(0:33)
d|---------------------------------------------------------|
A|---------------------------------------------------------|
F|*-7h9p7--------------------------------------------------|
C|*-------9--7h9p7-----------------9--7--9--10---10---10---|
G|------------------9--7h9p7-------------------------------|
D|---------------------------10-7--------------------------|
                                                         x2
d|---------------------------------------------------------|
A|---------------------------------------------------------|
F|--7h9p7-------------------------------------------------*|
C|--------9--7h9p7-----------------9--7--10--9----9----9--*|
G|------------------9--7h9p7-------------------------------|
D|---------------------------10-7--------------------------|

(0:44)
Guitar 1:                                        x4
|d|------------------------|----------------------|
|A|------------------------|----------------------| Guitar 1 plays
|F|*-----------------------|---------------------*| this 4x and then
|C|*-4-------4--5---5---5--|-4------5--4---4---4-*| Guitar 2 joins in
|G|--2-------2--3---3---3--|-2------3--2---2---2--| and repeats
|D|----2--5----------------|---2--5---------------| another 4x.
| Guitar 2:                                      x4
|d|------------------------|----------------------|
|A|------------------------|----------------------|
|F|*-----------------------|---------------------*|
|C|*-8-------8--9---9---9--|-8------9--8---8---8-*|
|G|--6-------6--7---7---7--|-6------7--6---6---6--|
|D|----7--9----------------|---7--9---------------|

(0:58)
d|--7--7--7-----6---7---|-9---9---9-----6--6---------|
A|--8--8--8-----7---8---|-10--10--10----7--7---------|
F|--9--9--9-----8---9---|-11--11--11----8--8---------|
C|----------------------|----------------------------|
G|----------------------|----------------------------|
D|----------------------|----------------------------|

(1:05)                                     
This section repeats 2x                         x2
d|------------------------|----------------------|
A|------------------------|----------------------|
F|*-----------------------|---------------------*|
C|*-4-------4--5---5---5--|-4------5--4---4---4-*|
G|--2-------2--3---3---3--|-2------3--2---2---2--|
D|----2--5----------------|---2--5---------------|

d|--7--7--7-----6---7---|-9---9---9-----6--6---------|
A|--8--8--8-----7---8---|-10--10--10----7--7---------|
F|--9--9--9-----8---9---|-11--11--11----8--8--------*|
C|----------------------|---------------------------*|
G|----------------------|----------------------------|
D|----------------------|----------------------------|

(1:32)                                                            x2
d|--------------------------------|--------------------------------|
A|--------------------------------|--------------------------------|
F|*-------------------------------|-------------------------------*|
C|*-12-------7-------7---9---10---|--12-------7-------7---10--9---*|
G|--10-------9-------5---7---8----|--10-------9-------5---8---7----|
D|-----0--0-----0--0---0---0----0-|-----0--0-----0--0---0---0---0--|
       PM-|     PM-|   PM  PM   PM      PM-|     PM-|  PM   PM  PM
(1:40)                                              x2
d|--7--7--7-----6---7---|-9---9---9-----6--6---------|
A|--8--8--8-----7---8---|-10--10--10----7--7---------|
F|*-9--9--9-----8---9---|-11--11--11----8--8--------*|
C|*---------------------|---------------------------*|
G|----------------------|----------------------------|
D|----------------------|----------------------------|

(1:47)
d|--------------------------------|--------------------------------|
A|--------------------------------|--------------------------------|
F|--------------------------------|--------------------------------|
C|--12-------7-------7---9---10---|--12-------7-------7---10--9----|
G|--10-------9-------5---7---8----|--10-------9-------5---8---7----|
D|-----0--0-----0--0---0---0----0-|-----0--0-----0--0---0---0---0--|
       PM-|     PM-|   PM  PM   PM      PM-|     PM-|  PM   PM  PM
(1:51)
d|--7--7--7-----6---7---|-9---9---9--|
A|--8--8--8-----7---8---|-10--10--10-|
F|*-9--9--9-----8---9---|-11--11--11-|
C|*---------------------|------------|
G|----------------------|------------|
D|----------------------|------------|

(1:54)                                                            x2
d|--------------------------------|--------------------------------|
A|--------------------------------|--------------------------------|
F|--------------------------------|--------------------------------|
C|--12-------7-------7---9---10---|--12-------7-------7---10--9----|
G|--10-------9-------5---7---8----|--10-------9-------5---8---7----|
D|-----0--0-----0--0---0---0----0-|-----0--0-----0--0---0---0---0--|
      PM-|     PM-|   PM  PM   PM      PM-|     PM-|  PM   PM  PM
(2:02)                                                         x2
|d|-----------------------------|-------------------------------|
|A|-----------------------------|-------------------------------|
|F|*----------------------------|------------------------------*|
|C|*-12-12-12-9-9-9-7-7-9-9-10--|--12-12-12-9-9-9-7-7-10-10-9--*|
|G|--10-10-10-7-7-7-5-5-7-7-8---|--10-10-10-7-7-7-5-5-8--8--7---|
|D|-----------------------------|-------------------------------|
| Guitar 2:
|d|-----------------------------|-------------------------------|
|A|-----------------------------|-------------------------------|
|F|--7--7--7--4-4-4-4-4-5-5-4-4-|--7--7--7--4-4-4-4-4-5--5--4-4*|
|C|-----------------------------|------------------------------*|
|G|-----------------------------|-------------------------------|
|D|-----------------------------|-------------------------------|

(2:11)                                                                        x2
d|-------------------------------------|---------------------------------------|
A|-------------------------------------|---------------------------------------|
F|-------------------------------------|---------------------------------------|
C|-9----9--14-----14--10---10--10----10|--9----9--9----9--15-----15--15-----15-|
G|------9---------14-------10--------10|-------9-------9-----13--15---------15-|
D|---7--7-----12--12-----8-8------8--8-|----7--7----7--7---------13-----13--13-|

(2:46)
d|---------------------------|---------------------------------|
A|---------------------------|---------------------------------|
F|*--------------------------|---------------------------------|
C|*-9-x-x-x-x-x-9-9-9-9-9-9--|--9-x-x-x-x-x-10-10-10-10-10-10--|
G|--9-x-x-x-x-x-9-9-9-9-9-9--|--9-x-x-x-x-x-10-10-10-10-10-10--|
D|--7-x-x-x-x-x-7-7-7-7-7-7--|--7-x-x-x-x-x-8--8--8--8--8--8---|

d|---------------------------------|----------------------------------|
A|---------------------------------|----------------------------------|
F|---------------------------------|----------------------------------|
C|-10-x-x-x-x-x-10-10-10-10-10-10--|--10-x-x-x-x-x-10-10-10-10-10-9---|
G|-10-x-x-x-x-x-10-10-10-10-10-10--|--10-x-x-x-x-x-8--8--8--8--8--9---|
D|-8--x-x-x-x-x-8--8--8--8--8--8---|--8--x-x-x-x-x-8--8--8--8--8--7---|

d|---------------------------|---------------------------|
A|---------------------------|---------------------------|
F|---------------------------|---------------------------|
C|--9-x-x-x-x-x-9-9-9-9-9-9--|--9-x-x-x-x-x-9-9-9-9-9-9--|
G|--9-x-x-x-x-x-9-9-9-9-9-9--|--9-x-x-x-x-x-9-9-9-9-9-9--|
D|--7-x-x-x-x-x-7-7-7-7-7-7--|--7-x-x-x-x-x-7-7-7-7-7-7--|
                                                                     x2
d|---------------------------------|----------------------------------|
A|---------------------------------|----------------------------------|
F|---------------------------------|---------------------------------*|
C|-12-x-x-x-x-x-12-12-12-12-12-12--|--12-x-x-x-x-x-12-12-12-12-12-9--*|
G|-12-x-x-x-x-x-12-12-12-12-12-12--|--12-x-x-x-x-x-12-12-12-12-12-9---|
D|-10-x-x-x-x-x-10-10-10-10-10-10--|--10-x-x-x-x-x-10-10-10-10-10-7---|

(3:20)                                                                        
d|-------------------------------------|---------------------------------------|
A|-------------------------------------|---------------------------------------|
F|-------------------------------------|---------------------------------------|
C|-9----9--14-----14--10---10--10----10|--9----9--9----9--15-----15--15-----15-|
G|------9---------14-------10--------10|-------9-------9-----13--15---------13-|
D|---7--7-----12--12-----8-8------8--8-|----7--7----7--7---------13-----13--13-|

(3:39)
d|---------|
A|---------|
F|---------|
C|-9----9--|
G|------9--|
D|---7--7--|
        Let Ring-------|

There it is.  The ending might still need a little bit of work, so if you
can figure out a better way to play it, email me at *

Tabbed by SenorBill
August 4, 2006
00:00 / 00:00
Outros vídeos desta música
Repetir
Outros vídeos desta música
Composição de Mastodon
627 exibições
    • ½ Tom
    • A
    • Bb
    • B
    • C
    • Db
    • D
    • Eb
    • E
    • F
    • F#
    • G
    • Ab
  • Adicionar à lista

    0 comentários

    Ver todos os comentários

    Entre para oCifra Club PRO

    Tenha acesso a benefícios exclusivos no App e no Site

    • Chega de anúncios

    • Prioridade de compra em lançamentos

    • Mais recursos no app do Afinador

    • Atendimento Prioritário

    • Descontos nos produtos Cifra Club

    • Ajude a produzir mais conteúdo

    00:00 / 00:00

    Cifra Club Pro

    Aproveite o Cifra Club com benefícios exclusivos e sem anúncios
    Cifra Club Pro
    Aproveite o Cifra Club com benefícios exclusivos e sem anúncios
    OK