Cifra Club

Aprenda

A Menor Paciência

Matanza

Cifra: Principal (violão e guitarra)
Tom: G
Intro:
E|-----------------------|
B|-----------------------|
G|-----------------------|
D|-----0-0h2-2-0---0-----|
A|-0-2-----------2---2-0-|
E|-----------------------|

    E       G              E             E                                G         A
E|---|------|--------------|--------------|----------------------|-------------------------|
B|---|------|--------------|---------3-3/5|-5-3---3--------------|-------------------------|
G|---|------|--------------|-----2-4------|-----4---4-2-0--------|-------0-4-2-0-----------|
D|-2-|-----5|-------------2|-0-2----------|---------------2-2-0-2|-0-2-4---------0h2p0---0-|
A|-2-|-----5|-0-0h2p0-----2|--------------|----------------------|---------------------2---|
E|-0-|-0-2-3|---------3-2-0|--------------|----------------------|-------------------------|

Riff:
    E
E|-------|------|
B|-------|------|
G|-------|------|
D|-2-2-22|-2-22-|
A|-2-2-22|-2-22-|
E|-0-0-00|-0-00-|

  E              E          E             E         G                G        G     G
Não quero que perca seu tempo comigo não sou amigo seu e não pretendo ser,
       D         D          D            D        A                  A       A     A
Não quero que perca seu dia, que me dando notícia que eu não quero saber
  E              E       E              E      G             G        G     G
Não quero ser desagradável, mas não é razoável que me venha pedir
      D             D         D              D         A                A          B
Que fique aqui ouvindo promessa, porque não me interessa o que será disso aqui

Refrão:
 Em              G                 D              A
Eu não preciso que ninguém venha atormentar meu juízo
       Em              G                D   40 53 52   A  50 63 62
 Eu não tenho mais a menor paciência pra isso
 Em              G                D               A
Eu não preciso que ninguém me de nenhum tipo de aviso
       Em               G                D   40 53 52   A  50 63 62
Eu não tenho mesmo a menor paciência pra isso

Solo:
    E           G    3x          A           B          |  Riff
E|----------------------------|------------------------|--------
B|----------------------------|------------------------|--------
G|----------------------------|-2-222-------4-444------|--------
D|-2-22222-----5-5------------|-2-222-------4-444------|--------
A|-2-22222-----5-5-0-0h2p0----|-0-000-0-2-0-2-222------|--------
E|-0-00000-0-2-3-3---------3-2|-------------------3-2-3|--------

  E             E       E              E          G             G           G     G
Não desça do seu aparelho, só pra me dar conselho que eu não vou seguir
     D            D         D             D           A        A         A     A
Eu sei bem do que me condena, só que não vale a pena tentar corrigir
  E              E            E            E         G         G          G     G
Não quero que se de ao trabalho, e se for necessário eu torno a dizer
  D           D       D        D         A            A       B
Não se preocupe comigo eu não sou amigo e não pretendo ser

 Refrão

Solo:
     E           G                A           B           Pausa            E              G
E|----------------------------|----------------------------|----------------------|--------|
B|----------------------------|-----------------------3-3/5|-5-3---3--------------|--------|
G|----------------------------|-2-222-------4-444-2-4------|-----4---4-2-0--------|-------0|
D|-2-22222-----5-5------------|-2-222-------4-444----------|---------------2-2-0-2|-0-2-4--|
A|-2-22222-----5-5-0-0h2p0----|-0-000-0-2-0-2-222----------|----------------------|--------|
E|-0-00000-0-2-3-3---------3-2|----------------------------|----------------------|--------|
              3x
           A       E              G       A       E    Riff
E|------------------|-------|-------|-------|-----|-------|
B|-----3-2----------|---5-5~|---3---|-------|-----|-------|
G|-2-4-----4-2-0-4--|-4-----|-4---4~|-0-2---|-----|-------|
D|-----------------2|-------|-------|-----4~|-0-2~|-------|
A|------------------|-------|-------|-------|-----|-------|
E|------------------|-------|-------|-------|-----|-------|

C                 A                  E            E PM
  Aqui eu moro sozinho, não tenho vizinho, até aqui, não tem caminho
C                  A                     E         E PM
  Aqui eu vivo isolado, e muito bem obrigado não quero ser perturbado
C                     A                     E        E PM
  Aqui eu passo tranqüilo, longe de tudo aquilo que nunca fez meu estilo
C                            A                    B
  Se alguém morar pra esses lados, o que eu não quero é ser importunado

Solo:
                      B
E|----------------|---------|------------------
B|----------------|---------|------------------
G|----------------|-4-444444|-2-4-5-4-2-2-0----
D|----------------|-4-444444|---------------4--
A|-0-2-3-2-0------|-2-222222|------------------
E|-----------3-2-0|---------|------------------
 |          2x              |

 Refrão

Solo:
     E           G                A           B      Pausa                  E
E|----------------------------|---------------------------------------------
B|----------------------------|---------------------------------------------
G|----------------------------|-2-222-------4-444---------------------------
D|-2-22222-----5-5------------|-2-222-------4-444-----0-0h2-2-0---0------2--
A|-2-22222-----5-5-0-0h2p0----|-0-000-0-2-0-2-222-0-2-----------2---2-0--2--
E|-0-00000-0-2-3-3---------3-2|------------------------------------------0--
               3x
Colaboração e revisão:
  • Valeria Silva
30.013 exibições
    • ½ Tom
    • A
    • Bb
    • B
    • C
    • Db
    • D
    • Eb
    • E
    • F
    • F#
    • G
    • Ab
  • Adicionar à lista

    0 comentários

    Mostrar mais comentários

    Conseguiu tocar?

    20 Tocaram 2 Ainda não

    Grave um vídeo tocando A Menor Paciência e mande pra gente!

    00:00 / 00:00
    outros vídeos desta música
    repetir qualidade Automático
    Outros vídeos desta música
    00:00 / 00:00
    Automático

    Cifra Club Pro

    Aproveite o Cifra Club com benefícios exclusivos e sem anúncios
    Cifra Club Pro
    Aproveite o Cifra Club com benefícios exclusivos e sem anúncios
    OK