Cifra Club

Bom é quando faz mal

Matanza

Cifra: Principal
exibições 189.582
Tom: F
(intro 4x)


E|------------------|
B|------------------|
G|--------3h5-3h5---|
D|--5-5---3h5-3h5---|
A|--3-3-------------|
E|------------------|


( C )

C
Ta fazendo o que em casa
C
Por acaso está doente
C
Ver TV é deprimente
C
Não tem nada mais sem graça

F
Bom de noite é ir pra rua
F
Mesmo quando está chovendo
C
Eu que nunca me arrependo
C
Ta errado eu to fazendo

G
Vai saber o que é normal
F
Só que eu posso te dizer (pausa)
Bom é quando faz mal

(intro 4x)

E|------------------|
B|------------------|
G|--------3h5-3h5---|
D|--5-5---3h5-3h5---|
A|--3-3-------------|
E|------------------|


( C )

C
20 caixas de cerveja
C
Um barril de puro whiskey
C
Quilos de carne vermelha
C
Fique longe não se arrisque

F
Não importa onde esteja
F
É sempre é onde tem mais barulho
C
Maior cheiro de bagulho
C
Disso eu me orgulho

G
Vá saber o que é normal
F
Só que eu posso te dizer (pausa)
Bom é quando faz mal

(intro 4x)

E|------------------|
B|------------------|
G|--------3h5-3h5---|
D|--5-5---3h5-3h5---|
A|--3-3-------------|
E|------------------|


( C )

Eb   A#    C
    Conseqüência qualquer coisa traz
Eb   A#    C
    Quando é bom nunca é de mais
Eb   A#    C            C
    E se faz bem ou mal tanto faz
C          C
Tanto faz, tanto faz,

(solo)


E|--------------------------------------------------
B|--5---3-------------------------------------------
G|----5---3-3-0-3-0-3-h555--3-h555--3-h555--3-h555--
D|--------------------------------------------------
A|--------------------------------------------------
E|--------------------------------------------------


E|----------------------------x-|
B|--3-------------------------x-|
G|----5-3---------------------5-|
D|-------5-3-5-3--3-----------5-|
A|---------------5-5-3-5-0----3-|
E|----------------------------x-|


(solo base)   C   A#  C  A# G

(solo gaita em C|)
  C
  6 5 (3) 4 5 6

(guitarra pós gaita. 3x)

E|-------------------|
B|-------------------|
G|---------3h5-3h5---|
D|--5--5---3h5-3h5---|
A|--3--3-------------|
E|-------------------|

    |  |
   (2)(2)
C
(2...)

C
Ta fazendo o que em casa
C
Por acaso está doente
C
Ver TV é deprimente
C
Não tem nada mais sem graça

F
Bom de noite é ir pra rua
F
Mesmo quando está chovendo
C
Eu que nunca me arrependo
C
Ta errado eu to fazendo

G
Vai saber o que é normal
F
Só que eu posso te dizer (pausa)
Bom é quando faz mal

(intro 4x)

E|------------------|
B|------------------|
G|--------3h5-3h5---|
D|--5-5---3h5-3h5---|
A|--3-3-------------|
E|------------------|


( C )

Eb   A#    C
    Conseqüência qualquer coisa traz
Eb   A#    C
    Quando é bom nunca é de mais
Eb   A#    C            C
    E se faz bem ou mal tanto faz
C          C          C
Tanto faz, tanto faz, tanto faz

(final)

E|--------------------------|
B|---5-3--------------------|
G|----5-3-3-0-3-0-3--5-5----|
D|--------------------------|
A|--------------------------|
E|--------------------------|
Acordes para:
    Colaboração e revisão:

    0 comentários

      mostrar mais comentários

      Conseguiu tocar?

      13tocaram0ainda não

      Grave um vídeo tocando Bom é quando faz mal e mande pra gente!

      00:00 / 00:00
      outros vídeos desta música
      repetirqualidadeautomática
      Outro vídeos desta música
        00:00 / 00:00
        automática
        OK