Cifra Club

Clube dos Canalhas

Matanza

Cifra: Principal
exibições 283.215
Tom: E
Riff Introdução

Riff 1
E|----------------------------------------------------|
B|----------------------------------------------------|
G|----------------------------------------------------|
D|-------------------4--------------------------------|
A|----------------------------------------------------|
E|-2--2--4--2--5--2-----2-----------------------------| (7x)

Riff 2
E|----------------------------------------------------|
B|----------------------------------------------------|
G|----------------------------------------------------|
D|----------------------------------------------------|
A|----------------------------------------------------|
E|-2--2--4--2--5--4--2--0-----------------------------|

F#5                  B5                         (Riff 1) (Riff 2)
Vai chegar de madrugada e ela vai querer saber
F#5                 B5                      (Riff 1) (Riff 2)
Onde foi, aonde esteve, o que foi fazer
F#5                B5
Mas à todas as perguntas sabe responder
A5              B5                 (Riff 1) (Riff 2)
Tem um plano "A" e tem um plano "B"

Riff 3
E|----------------------------------------------------|
B|----------------------------------------------------|
G|----------------------------------------------------|
D|----7--7--7--7/6--6--6--6/4--4--4--4/2--2--2--------|
A|-7--------------------------------------------------|
E|----------------------------------------------------|

Riff 4
E|----------------------------------------------------|
B|----------------------------------------------------|
G|----------------------------------------------------|
D|----7--7--7--7/6--6--6--6/7--7--7--7/9--9--9--------|
A|-7--------------------------------------------------|
E|----------------------------------------------------|

E5                      F#5 (Riff 3)
Se você nunca se contradiz
E5                             F#5  (Riff 4)
Não abre mão do que te faz feliz
E5                            F#5 (Riff 1) (Riff 2)
Se não há nada que abale sua paz

Já nasceu sabendo como é que se faz
E5                                C#5 B5 A5 G#5 (Riff 1) (Riff 2)
e todo segue do jeito que sempre quis

A5                             B5
Temos um sócio no Clube dos Canalhas
      E5  F#5
Não admitimos que apontem nossas falhas
         A5             B5                         (Riff 1) (Riff 2)
Queremos todo dia tudo isso que a vida tem de bom
A5                          B5
Farra para tudo é um bom remédio
                    E5 F#5
Só um idiota completo morre de tédio
         A5             E5                          (Riff 1) 7x (Riff 2)
Queremos todo dia tudo isso que a vida tem de bom

F#5                  B5                         (Riff 1) (Riff 2)
Sabe o quanto é importante não dar muita explicação
F#5                 B5                      (Riff 1) (Riff 2)
Não há nada de extraordinário na situação
F#5                B5
O segredo do sucesso é a moderação
A5              B5                 (Riff 1) (Riff 2)
ter um dia sim e ter um dia não

E5                      F#5 (Riff 3)
Se você nunca se contradiz
E5                             F#5  (Riff 4)
Não abre mão do que te faz feliz
E5                            F#5 (Riff 1) (Riff 2)
Se não há nada que abale sua paz

Já nasceu sabendo como é que se faz
E5                                C#5 B5 A5 G#5 (Riff 1) (Riff 2)
e todo segue do jeito que sempre quis

A5                             B5
Temos um sócio no Clube dos Canalhas
      E5  F#5
Não admitimos que apontem nossas falhas
         A5             B5                         (Riff 1) (Riff 2)
Queremos todo dia tudo isso que a vida tem de bom
A5                          B5
Farra para tudo é um bom remédio
                    E5 F#5
Só um idiota completo morre de tédio
         A5             E5
Queremos todo dia tudo isso que a vida tem de bom (Riff 1) 7x (Riff 2) 

F#5 B5 F#5

0 comentários

    mostrar mais comentários

    Conseguiu tocar?

    104tocaram1ainda não

    Grave um vídeo tocando Clube dos Canalhas e mande pra gente!

    00:00 / 00:00
    outros vídeos desta música
    repetirqualidadeautomática
    Outro vídeos desta música
      00:00 / 00:00
      automática
      OK