Cifra Club

Aprenda

Pandemonium

Matanza

Cifra: Principal (violão e guitarra)
Tom: E
/ = slide
^ = hammer-on
Intro

D|--9----9----9----5-4-5-4-5-4-5-4---9-------| 
A|--7----7----7----3-2-3-2-3-2-3-2---7-------|
E|-------------------------------------------|

D|--9----9----9----5-4-5-4-5-4-5-4----------------2-|
A|--7----7----7----3-2-3-2-3-2-3-2-----7--7---5-4-2-|
E|-------------------------------------5--5---3-2-0-|


riff 1

D|----------------------|
A|------------5-6-7-----|
E|---5--7--8---------0--|

riff 2

D|--------------5---------------4-------------5-4-5-7-|
A|--------------3---------------2-------------3-2-3-5-|
E|--0-0-0-0-0-0---0-0-0-0-0-0-0---0-0-0-0-0-0---------|


D|--------------5---------------4-------------4---------|
A|--------------3---------------2-------------2-7-5-4-2-|
E|--0-0-0-0-0-0---0-0-0-0-0-0-0---0-0-0-0-0-0---5-3-2-0-|

E
Essas coisas que acontecem todo dia
                   (A - A - G / A - C - B - C)
sem motivo nem razão
E                                                            
O Garçom serve na mesa o outro pega, puxa e mete um cadeirão
E                                               (A - A - G / A - C - B - C)
Miolo e osso tudo misturado cai num prato de patê
E
Você vê que o talher a sua frente
                  (A - A - G / A - C - B - C)
Não é só para comer

B                                                A              
Deu Azar, foi passar, por aqui, nunca vi, nada assim, 
                G          B             E
to ruim, quem matei, vou saber, só depois,
E      (riff 1)      E        (riff 1)   
não me lembro de nada, não me conte o que eu fiz,
E        (riff 1)   (B - A - G - F#)
acordei de ressaca, muito mais feliz

(riff 2)

E
Essa voz na sua cabeça que não para 
                        (A - A - G / A - C - B - C)
E que não te deixa pensar
E                                                   (A - A - G / A - C - B - C)
É o mal que te domina possuído você só pensa em matar 
E                                                     (A - A - G / A - C - B - C)
Olha só o restaurante inteiro que você sozinho detonou
E                                                         (A - A - G / A - C - B - C)
E lembra da barbearia, pela hora aquela porra não fechou

B                                                A              
Deu Azar, foi passar, por aqui, nunca vi, nada assim, 
                G          B             E
to ruim, quem matei, vou saber, só depois,
E      (riff 1)      E        (riff 1)   
não me lembro de nada, não me conte o que eu fiz,
E        (riff 1)   (B - A - G - F#) 3x
acordei de ressaca, muito mais feliz

(riff 2)
(solo)

Solo:
G|-----------------------------4-5-4-----------------------------------------------------------|
D|--9-7-5-7-5-------9-7-5-7-5---------9-7-5-7-5-----10-9-7-7^9-7-------------------------------|
A|------------7-5-7-----------------------------7-5--------------10-9-7------------------------|

G|-----------------------------4-5-4-----------------------------------------------------------|
D|--9-7-5-7-5-------9-7-5-7-5---------9-7-5-7-5------9-7-5---9-7-5---10-9-7-5------------------|
A|------------7-5-7-----------------------------7-5--------7-------7----------7----------------|


(linha de baixo)
E   E    D5 / E5

E   E5 / D5 E5               E   E5 / D5 E5
Essas coisas que acontecem todo dia
                   (A - A - G / A - C - B - C)
sem motivo nem razão
E        E5 / D5 E5             E   E5 / D5 E5         (A - A - G / A - C - B - C)                      
O Garçom serve na mesa o outro pega, puxa e mete um cadeirão
E         E5 / D5 E5            E   E5 / D5 E        (A - A - G / A - C - B - C)
Miolo e osso tudo misturado cai num prato de patê
E         E5 / D5 E5            E   E5 / D5 E
Você vê que o talher a sua frente
                  (A - A - G / A - C - B - C)
Não é só para comer

B                                                A              
Deu Azar, foi passar, por aqui, nunca vi, nada assim, 
                G          B             E
to ruim, quem matei, vou saber, só depois,
E      (riff 1)      E        (riff 1)   
não me lembro de nada, não me conte o que eu fiz,
E        (riff 1)   (B - A - G - F#)2x    (B - A - G - F# - F - E)
acordei de ressaca, muito mais...                      ...feliz



BY Heitor [ov0] Loureiro - Juiz de Fora - MG heitor_acl@hotmail.com
Correção - NinjitsU - Campo Grande - MS - c_vinicius_net@hotmail.com - 1º tabladura
Composição de Donida
Colaboração e revisão:
  • Caio Martins
  • Heitor Loureiro
17.926 exibições
    • ½ Tom
    • A
    • Bb
    • B
    • C
    • Db
    • D
    • Eb
    • E
    • F
    • F#
    • G
    • Ab
  • Adicionar à lista

    0 comentários

    Mostrar mais comentários

    Conseguiu tocar?

    2 Tocaram 0 Ainda não

    Grave um vídeo tocando Pandemonium e mande pra gente!

    00:00 / 00:00
    outros vídeos desta música
    repetir qualidade Automático
    Outros vídeos desta música
    00:00 / 00:00
    Automático

    Cifra Club Pro

    Aproveite o Cifra Club com benefícios exclusivos e sem anúncios
    7 dias grátis
    Cifra Club Pro
    Aproveite o Cifra Club com benefícios exclusivos e sem anúncios
    7 dias grátis
    OK