Enviar cifraEntrar

Tentei te esquecer

Matogrosso & Mathias

Cifra: Principal
exibições 591.361
Tom: B
Intro 2x:  B  E  F#

( Solo 1 )


E|---------------------------------------|
B|---------------------------------------|
G|-------4-6-6/8~-9h8-4------------------|
D|------4---------------4/6-4------------|
A|---------------------------------------|
E|---------------------------------------|


E|---------------------------------------|
B|-----------4-5-5/7~--7/5-4-5-7-7/9-----|
G|-------4-6-------------------------6~--|
D|------4--------------------------------|
A|---------------------------------------|
E|---------------------------------------|


            B            E         F#
Ah! Como  quero te encontrar novamente
        B            E     F#
Estou sozinho procurando você
           B          E         F#
Ah! Como quero te abraçar loucamente
      C#m              E         F#                  B  E F#
Olhar dentro dos teus olhos e dizer "não vivo sem você"

( 2ª Parte )

         B          E          F#
O tempo passa cai à noite e o dia vem
         B               E        F#
Tento fingir, mas não dá pra esconder...
          B              E            F#
Ah! Eu sonhei nas noites vagas com teu amor
          G#m        E        F#
Provei teu beijo magoei minha dor

Refrão:

             B    E       F#
Tentei te esquecer... não deu
             B          E             F#
Pensei que fosse mais forte que esse amor
            B   E     F#
Ó minha paixão... sou teu
                  B           E         F#
Por mais que eu queira disfarçar como estou
            G#m           F#  E               C#m               F#          B
O meu coração se nega a aceitar,          passa o tempo não  esqueço de te amar.

Solo 2:  B E F# B E F#


E|---------------------------------------------------------------------------|
B|---------------------------------------------------------------------------|
G|-----------6b8---------------4-6/8-6~---3h4-4/6----------------------------|
D|----------------4--------4-6--------------------4--------------------------|
A|---------------------4-6---------------------------------------------------|
E|---------------------------------------------------------------------------|


E|---------------------------------------------------------------------------|
B|----------------4-5-5/7~--2h4/5-7-7/9-7~-----------------------------------|
G|------------4-6---------------------------3h4/6----------------------------|
D|-----------4------------------------------------4~-/0----------------------|
A|---------------------------------------------------------------------------|
E|---------------------------------------------------------------------------|


( Repete 2ª Parte )

             B    E       F#
Tentei te esquecer... não deu
             B          E             F#
Pensei que fosse mais forte que esse amor
            B   E     F#
Ó minha paixão... sou teu
                   B          E         F#
Por mais que eu queira disfarçar como estou
           G#m            F#  E
O meu coração se nega a aceitar,
         C#m           F#           B    G#m
passa o tempo não  esqueço de te amar.

         C#m              F#           B
passa o tempo não me esqueço de te amar.

( Solo Final )

 OBS: Fazer o slide junto a nota final                                    ( B )


E|---------------------------------------|                           E|-----2--------|
B|---------------------------------------|                           B|-----3--------|
G|-------4-6----6/8~---------------------|                           G|-----3--------|
D|------4--------------------------------|                           D|-----3--------|
A|---------------------------------------|                           A|-----2--------|
E|---------------------------------------|                           E|-----2--------|
  • 1
  • 2
  • 3
  • 4
  • 5
  • 6
  • 7
  • 8
  • 9
  • 10
  • 11
  • 12

    0 comentários

      mostrar mais comentários

      Conseguiu tocar?

      26tocaram1ainda não

      Grave um vídeo tocando Tentei te esquecer e mande pra gente!

      00:00 / 00:00
      outros vídeos desta música
      repetirqualidadeautomática
      • automática
      Outro vídeos desta música
        00:00 / 00:00
        automática
        • automática
        1 versão de Guitar Proformatodownloadscontribuição
        fecharplay/pause subir/descer velocidade
          acordes
          fechar
          OK
          Feedback