Cifra Club

Buffalo Seven

Matthew Good

Cifra (violão e guitarra)
Selo Cifra Club: esta cifra foi revisada para atender aos critérios oficiais da nossa Equipe de Qualidade.
tom: G
     F5    A5    C     G     D     Am    C5    E5    G5    D5
E|---x-----x-----0-----3-----2-----0-----x-----x-----x-----x-----|
B|---x-----x-----1-----3-----3-----1-----x-----x-----x-----x-----|
G|---x-----x-----0-----0-----2-----2-----5-----x-----x-----7-----|
D|---3-----7-----2-----0-----0-----2-----5-----2-----5-----7-----|
A|---3-----7-----3-----2-----x-----0-----3-----2-----5-----5-----|
E|---1-----5-----x-----3-----x-----x-----x-----0-----3-----x-----|

Intro

E|------------------------------------------------------------------|
B|----1-0---1-0-------------------------1-0---1-0h1p0---------------|
G|-------------------0------0-----------------------------0------0--|
D|-----------------0------------------------------------0-----------|
A|--0-----3--------------------3-2----0-----3-----------------------|
E|---------------3------2-----------------------------3------2------|

Verse
E|-----------------------------------|
B|----1-0---1-0----------------------|
G|-------------------0------0--------| play 6 times
D|-----------------0-----------------|
A|--0-----3--------------------3-2---|
E|---------------3------2------------|

Prechorus:

F5 A5    3x...listen to CD for strumming

Chorus:

C, G, D, Am    2x

skip the Am second time through and go straight into the riff

then play

Verse 2x then stop for bass, come back in at (1:12) and play verse 2 times
Prechorus 3x
Chorus 3x

Solo Chords:

C5, E5, G5, D5   6x

then play

Prechorus 4x
Chorus   3x
Verse 4x end on A string.
Outros vídeos desta música
    0 exibições
      • ½ Tom
      • A
      • Bb
      • B
      • C
      • Db
      • D
      • Eb
      • E
      • F
      • F#
      • G
      • Ab
    • Adicionar à lista

    Afinação da cifra

    Afinador online

      0 comentários

      Ver todos os comentários

      Entre para o Cifra Club PRO

      Tenha acesso a benefícios exclusivos no App e no Site

      • Chega de anúncios

      • Badges exclusivas

      • Mais recursos no app do Afinador

      • Atendimento Prioritário

      • Aumente seu limite de lista

      • Ajude a produzir mais conteúdo

      Cifra Club Pro

      Aproveite o Cifra Club com benefícios exclusivos e sem anúncios
      Cifra Club Pro
      Aproveite o Cifra Club com benefícios exclusivos e sem anúncios
      Ops (: Contenido disponible sólo en portugués.
      OK