Cifra Club

Aprenda

Lara's Theme

Maurice Jarre

Cifra: Principal (violão e guitarra)
tom: B
E|------------6---7----|-----------------------|----------------|---------------------|
B|------------7---8----|-------7---10--8-------|----------------|------------5---7----|
G|-------7-------------|-------------------7---|-----6---5------|-5-----7----5---7----|
D|-9-------------------|-------------------9---|-----8---7------|-7-----9-------------|
A|---------------------|-----------------------|----------------|---------------------|
E|---------------------|-----------------------|----------------|---------------------|

E|-----------------------|-----8---7------|------------------|---------------------------|
B|-------5---------------|-----10--8------|-------8-----8----|-----10--8---7---8---------|
G|-----------7---6---7---|----------------|-9-----9-----9----|-----------------9-----9---|
D|-----------------------|----------------|-10---------------|-----------------------10--|
A|-----------------------|----------------|------------------|---------------------------|
E|-----------------------|----------------|------------------|---------------------------|

E|-------------|------------------|-----------------------------|------8------|------------6---7----|
B|-------------|-------6-----6----|-6--7--8---7---8---10----11--|------10-----|------------7---8----|
G|------7------|-7-----7-----7----|-------------------10----10--|------11-----|-------7-------------|
D|------9------|-8----------------|-------------------10----12--|------10-----|-9-------------------|
A|-------------|------------------|-------------------------13--|-------------|---------------------|
E|-------------|------------------|-----------------------------|-------------|---------------------|

E|-----------------------|----------------|---------------------|-----------------------|
B|-------7---10--8-------|----------------|------------5---7----|-------5---------------|
G|-------------------7---|-----6---5------|-5-----7----5---7----|-----------7---6---7---|
D|-------------------9---|-----8---7------|-7-----9-------------|-----------------------|
A|-----------------------|----------------|---------------------|-----------------------|
E|-----------------------|----------------|---------------------|-----------------------|

E|-----8---7------|------------------|---------------------------|-------------|------------------|
B|-----10--8------|-------8-----8----|-----10--8---7---8---------|-------------|-------6-----6----|
G|----------------|-9-----9-----9----|-----------------9-----9---|------7------|-7-----7-----7----|
D|----------------|-10---------------|-----------------------10--|------9------|-8----------------|
A|----------------|------------------|---------------------------|-------------|------------------|
E|----------------|------------------|---------------------------|-------------|------------------|

E|-----------------------------|------8------|------------------------------|---------------------------|
B|-6--7--8---7---8---10----11--|------10-----|---------------------4---3----|---------------4---3---1---|
G|-------------------10----10--|------11-----|-----3---2---------------2----|-----2-----0---------------|
D|-------------------10----12--|------10-----|-0-----------4---5-------4----|-----4-----1---------------|
A|-------------------------13--|-------------|------------------------------|-----------3---------------|
E|-----------------------------|-------------|------------------------------|---------------------------|

E|-----4---3-----------|-3---4---3---1-------------------|------------------------------|
B|-0-------4-----1-----|-3---------------4---3---4---6---|-4----------------3---4---6---|
G|---------5-----0-----|-4-----------------------5-------|-----7---5----4---------------|
D|---------5-----1-----|-5-----------------------5-------|--------------3---------------|
A|---------------3-----|---------------------------------|--------------5---------------|
E|---------------------|---------------------------------|------------------------------|

E|------------------------|------------------------------|---------------------------|
B|--------------5---7-----|---------------------4---3----|---------------4---3---1---|
G|------5---7-------------|-----3---2---------------2----|-----2-----0---------------|
D|------7-----------------|-0-----------4---5-------4----|-----4-----1---------------|
A|------5-----------------|------------------------------|-----------3---------------|
E|------------------------|------------------------------|---------------------------|

E|-----4---3-----------|-3---4---3---1-------------------|------------------------------|
B|-0-------4-----1-----|-3---------------4---3---4---6---|-4----------------3---4---6---|
G|---------5-----0-----|-4-----------------------5-------|-----7---5----4---------------|
D|---------5-----1-----|-5-----------------------5-------|--------------3---------------|
A|---------------3-----|---------------------------------|--------------5---------------|
E|---------------------|---------------------------------|------------------------------|

E|------------------------|---------------6---7----|-----------------------|----------------|
B|--------------5---7-----|---------------7---8----|-------7---10--8-------|----------------|
G|------5---7-------------|----------7-------------|-------------------7---|-----6---5------|
D|------7-----------------|-9----------------------|-------------------9---|-----8---7------|
A|------5-----------------|------------------------|-----------------------|----------------|
E|------------------------|------------------------|-----------------------|----------------|

E|---------------------|-----------------------|------------5-----|-------3------|
B|------------5---7----|-------5---------------|------------------|--------------|
G|-5-----7----5---7----|-----------7---6---5---|------5-----5-----|-------4------|
D|-7-----9-------------|-----------------------|------------------|-------5------|
A|---------------------|-----------------------|------------------|--------------|
E|---------------------|-----------------------|------------------|--------------|

E|---------------------------------|---------------------------------|-7-------------------10--15--10--|
B|---------------------------------|-----------------------------8---|-----8-----------12--------------|
G|---------------------------------|---------7---------------7-------|---------7---12------------------|
D|-----------------5---------------|-----9-------9-------9-----------|---------------------------------|
A|---------------------5-----------|-10--------------10--------------|---------------------------------|
E|-------------------------7---7---|---------------------------------|---------------------------------|

E|-----15---------|
B|-12--15---------|
G|-----16---------|
D|-----17---------|
A|----------------|
E|----------------|

E|-------------7-------------------|-----7-----------------------7---|---------------------8-----------|
B|---------8-------8---------------|-8-------8---------------8-------|-8---------------10------10------|
G|-----7---------------7-------7---|-------------7-------7-----------|-----7-------7---------------7---|
D|-5-----------------------5-------|-----------------5---------------|---------0-----------------------|
A|---------------------------------|---------------------------------|---------------------------------|
E|---------------------------------|---------------------------------|---------------------------------|

E|-------------8-------------------|-----8-----------------------8---|---------------------7-----------|
B|---------10------10--------------|-10------10--------------10------|-10--------------8-------8-------|
G|-----7---------------7-------7---|-------------7-------7-----------|-----7-------7---------------7---|
D|-0-----------------------0-------|-----------------0---------------|---------5-----------------------|
A|---------------------------------|---------------------------------|---------------------------------|
E|---------------------------------|---------------------------------|---------------------------------|

E|-------------12------------------|-----12----------------------12--|---------------------7-----------|
B|---------13------13--------------|-13------13--------------13------|-13--------------8-------8-------|
G|-----12--------------12------12--|-------------12------12----------|-----12------7---------------7---|
D|-10----------------------10------|-----------------10--------------|---------5-----------------------|
A|---------------------------------|---------------------------------|---------------------------------|
E|---------------------------------|---------------------------------|---------------------------------|

E|-------------10------------------|-----10--------------------------|---------------------12--10------|
B|---------11------11--------------|-11------11--------------10------|-----11----------13--------------|
G|-----10--------------10------10--|-------------10------------------|-10----------11------------------|
D|-8-----------------------8-------|---------------------10------8---|-----------------------------12--|
A|---------------------------------|-----------------8---------------|---------12----------------------|
E|---------------------------------|---------------------------------|---------------------------------|

E|-------------7-------------------|-----7-----------------------7---|---------------------8-----------|
B|---------8-------8---------------|-8-------8---------------8-------|-8---------------10------10------|
G|-----7---------------7-------7---|-------------7-------7-----------|-----7-------7---------------7---|
D|-5-----------------------5-------|-----------------5---------------|---------0-----------------------|
A|---------------------------------|---------------------------------|---------------------------------|
E|---------------------------------|---------------------------------|---------------------------------|

E|-------------8-------------------|-----8-----------------------8---|---------------------7-----------|
B|---------10------10--------------|-10------10--------------10------|-10--------------8-------8-------|
G|-----7---------------7-------7---|-------------7-------7-----------|-----7-------7---------------7---|
D|-0-----------------------0-------|-----------------0---------------|---------5-----------------------|
A|---------------------------------|---------------------------------|---------------------------------|
E|---------------------------------|---------------------------------|---------------------------------|

E|-------------12------------------|-----12----------------------12--|---------------------7-----------|
B|---------13------13--------------|-13------13--------------13------|-13--------------8-------8-------|
G|-----12--------------12------12--|-------------12------12----------|-----12------7---------------7---|
D|-10----------------------10------|-----------------10--------------|---------5-----------------------|
A|---------------------------------|---------------------------------|---------------------------------|
E|---------------------------------|---------------------------------|---------------------------------|

E|-------------10------------------|-----10--------------------------|---------------------11--10------|
B|---------11------11--------------|-11------11--------------10------|-----11----------13--------------|
G|-----10--------------10------10--|-------------10------------------|-10----------11--------------11--|
D|-8-----------------------8-------|---------------------10------8---|---------------------------------|
A|---------------------------------|-----------------8---------------|---------------------------------|
E|---------------------------------|---------------------------------|---------------------------------|

E|---------------------|-----------------------|------------------------------|-------------|
B|---------------------|-----------------------|------------------------------|-------------|
G|-------7-------------|-----------------------|------------------------------|--------5----|
D|-5-------------------|---------5---7---------|--------------------------4---|-5-----------|
A|-----------------5---|-7---9-----------------|--------------5---6---8-------|-------------|
E|---------------------|-----------------8-----|----------8-------------------|-------------|

E|-------------|-------------|---------------------|-----------------------|------------------------------|
B|-------------|-------------|---------------------|-----------------------|------------------------------|
G|-------------|-------------|-------7-------------|-----------------------|------------------------------|
D|-------5-----|-------------|-5-------------------|---------5---7---------|--------------------------4---|
A|-------------|------5------|-----------------5---|-7---9-----------------|--------------5---6---8-------|
E|-------------|-------------|---------------------|-----------------8-----|----------8-------------------|

E|-------------|-------------|-------------|-------------7-------------------|-----7-----------------------7---|
B|-------------|-------------|-------------|---------8-------8---------------|-8-------8---------------8-------|
G|--------5----|-------------|-------------|-----7---------------7-------7---|-------------7-------7-----------|
D|-5-----------|-------5-----|-------------|-5-----------------------5-------|-----------------5---------------|
A|-------------|-------------|------5------|---------------------------------|---------------------------------|
E|-------------|-------------|-------------|---------------------------------|---------------------------------|

E|---------------------8-----------|-------------8-------------------|-----8---------------------------|
B|-8---------------10------10------|---------10------10--------------|-10------10----------------------|
G|-----7-------7---------------7---|-----7---------------7-------7---|-------------7---------------11--|
D|---------0-----------------------|-0-----------------------0-------|-------------------------12------|
A|---------------------------------|---------------------------------|---------------------12----------|
E|---------------------------------|---------------------------------|-----------------10--------------|

E|---------------------------------|-----10--14--------------7-------|-------------10------------|
B|-10--13----------10--13--10------|-10------------------8-------8---|---------12----------------|
G|-------------11--------------11--|-----------------7---------------|-7---12--------------------|
D|---------12----------------------|---------------------------------|---------------------------|
A|---------------------------------|-------------10------------------|-----10----------------10--|
E|---------10----------------------|-10------------------------------|---------------------------|

E|-----------------|--------------|----------------|
B|-----------------|--------------|----------------|
G|-----------------|--------------|----------------|
D|-----------------|--------------|----------------|
A|-----------10----|-------10-----|-----10---------|
E|-----------------|--------------|----------------|

Composição de Maurice Jarre
Colaboração e revisão:
  • Daiane Baroni
7.214 exibições
    • ½ Tom
    • A
    • Bb
    • B
    • C
    • Db
    • D
    • Eb
    • E
    • F
    • F#
    • G
    • Ab
  • Adicionar à lista

    0 comentários

    Ver todos os comentários

    Conseguiu tocar?

    1 Tocaram 1 Ainda não

    Grave um vídeo tocando Lara's Theme e nos envie!

    00:00 / 00:00
    Outros vídeos desta música
    Repetir Qualidade Automático
    Outros vídeos desta música
    00:00 / 00:00
    Automático

    Cifra Club Pro

    Aproveite o Cifra Club com benefícios exclusivos e sem anúncios
    Cifra Club Pro
    Aproveite o Cifra Club com benefícios exclusivos e sem anúncios
    OK