Cifra Club

Baile De Favela

MC João

Cifra: Original (violão e guitarra)
tom: G
Gm             Gm
Que ela veio quente .. Hoje eu To fervendo .. (2x)
C9         C9
Quer desafiar ?! Não To entendendo !
C9    D9     Am
Mexeu com R7 vai voltar com a xota 
     Am
ardendo vai   

(Volta no Gm e continua assim o resto da música)

E|----------------------
B|----------------------
G|- 0-3-2-0-0-3-3-3-2-0-
D|----------------------
A|----------------------
E|----------------------

E|----------------------
B|----------------------
G|- 0-3-2-0-0-3-3-3-5-5-
D|----------------------
A|----------------------
E|----------------------

E|--------------------------
B|--------------------------
G|- 5-3-5-3-5-5-5-3-5-3-5-5-
D|--------------------------
A|--------------------------
E|--------------------------

E|----------------------------
B|----------------------------
G|- 5-5-5-3-7-7-7-7-2-2-2-2-0-
D|----------------------------
A|----------------------------
E|----------------------------
Composição de MC João
Colaboração e revisão:
  • gabrie silva
  • Igor Viegas
4.443 exibições
    • ½ Tom
    • A
    • Bb
    • B
    • C
    • Db
    • D
    • Eb
    • E
    • F
    • F#
    • G
    • Ab
  • Adicionar à lista

    0 comentários

    Ver todos os comentários

    Conseguiu tocar?

    0 Tocaram 1 Ainda não

    Grave um vídeo tocando Baile De Favela e nos envie!

    00:00 / 00:00
    Outros vídeos desta música
    Repetir Qualidade Automático
    Outros vídeos desta música
    00:00 / 00:00
    Automático

    Cifra Club Pro

    Aproveite o Cifra Club com benefícios exclusivos e sem anúncios
    Cifra Club Pro
    Aproveite o Cifra Club com benefícios exclusivos e sem anúncios
    OK