Cifra Club

Deixa Rolar

MC Kekel

Cifra: Principal (violão e guitarra)
exibições 3.550
Tom: D#
[Intro]  Eb  Cm  Ab  Bb

E|----6--6-------3--3-------4--4-------6--6-----------|
B|----6--6-------4--4-------4--4-------6--6-----------|
G|-8--8--8----5--5--5-------5--5-------7--7-----------|
D|----8--8-------5--5----6--6--6----8--8--8-----------|
A|----------------------------------------------------|
E|----------------------------------------------------|

     Eb
Se pá eu vou falar com ela
      Cm
Fingir que eu tô na dela
           Ab                  Bb
Vou até falar que eu gosto dela
                    Ab
Mas nem vou demonstrar
                   Bb
Que eu sou o Mandela

                  Eb
Que ela é toda marota
             Cm
E eu todo durão
                  Ab
Tem o mesmo pensamento
                    Bb
Difícil de dar atenção
                  Eb
Que ela é toda marota
             Cm
E eu todo durão
                  Ab
Tem o mesmo pensamento
                    Bb
Difícil de dar atenção

                Eb
Cê acha que conhece
                 Cm
Mas não conhece não
                Ab
Cê acha que conhece
            Bb
Mas não conhece não

   Eb
De amor tô correndo
       Cm
Me livrando de sofrer
 Ab
Deixa rolar um beijo
 Bb
Ninguém vai ver
   Eb
De amor tô correndo
       Cm
Me livrando de sofrer
 Ab
Deixa rolar um beijo
 Bb
Ninguém vai ver

   Eb
De amor tô correndo
       Cm
Me livrando de sofrer
 Ab
Deixa rolar um beijo
 Bb
Ninguém vai ver
 Eb
Deixa rolar um beijo
 Cm             Ab  Bb
Ninguém vai ver

( Eb  Cm  Ab  Bb )
( Eb  Cm  Ab  Bb )

E|----6--6-------3--3-------4--4-------6--6-----------|
B|----6--6-------4--4-------4--4-------6--6-----------|
G|-8--8--8----5--5--5-------5--5-------7--7-----------|
D|----8--8-------5--5----6--6--6----8--8--8-----------|
A|----------------------------------------------------|
E|----------------------------------------------------|

     Eb
Se pá eu vou falar com ela
      Cm
Fingir que eu tô na dela
           Ab                  Bb
Vou até falar que eu gosto dela
                    Ab
Mas nem vou demonstrar
                   Bb
Que eu sou o Mandela

                  Eb
Que ela é toda marota
             Cm
E eu todo durão
                  Ab
Tem o mesmo pensamento
                    Bb
Difícil de dar atenção
                  Eb
Que ela é toda marota
             Cm
E eu todo durão
                  Ab
Tem o mesmo pensamento
                    Bb
Difícil de dar atenção

                Eb
Cê acha que conhece
                 Cm
Mas não conhece não
                Ab
Cê acha que conhece
            Bb
Mas não conhece não

   Eb
De amor tô correndo
       Cm
Me livrando de sofrer
 Ab
Deixa rolar um beijo
 Bb
Ninguém vai ver
   Eb
De amor tô correndo
       Cm
Me livrando de sofrer
 Ab
Deixa rolar um beijo
 Bb
Ninguém vai ver

   Eb
De amor tô correndo
       Cm
Me livrando de sofrer
 Ab
Deixa rolar um beijo
 Bb
Ninguém vai ver
 Eb
Deixa rolar um beijo
 Cm             Ab  Bb
Ninguém vai ver

[Final]  Eb  Cm  Ab  Bb
         Eb  Cm  Ab  Bb  Eb

E|----6--6-------3--3-------4--4-------6--6-----------|
B|----6--6-------4--4-------4--4-------6--6-----------|
G|-8--8--8----5--5--5-------5--5-------7--7-----------|
D|----8--8-------5--5----6--6--6----8--8--8-----------|
A|----------------------------------------------------|
E|----------------------------------------------------|
Acordes para:
    Composição: Mc Kekel Colaboração e revisão:
    • Lucas Kappaun

    0 comentários

    mostrar mais comentários

    Conseguiu tocar?

    0 tocaram 1 ainda não

    Grave um vídeo tocando Deixa Rolar e mande pra gente!

    00:00 / 00:00
    outros vídeos desta música
    repetir qualidade Automático
    Outros vídeos desta música
    00:00 / 00:00
    Automático
    OK