Cifra Club

Namorar Pra Quê?

MC Kekel

Cifra: Principal (violão e guitarra)
Tom: G
E|------------------------------------------|
B|-15---------------------15----------------|
G|---12(X6)-16-14-12-9------12(X6)-16-14-16-|(X2)
D|------------------------------------------|
A|------------------------------------------|
E|------------------------------------------|

E|------------------------------------------|
B|15-15-15--12-12-12------------------------|
G|------------------12-14-12~-12-12-12-9-12-|
D|------------------------------------------|
A|------------------------------------------|
E|------------------------------------------|

E|------------------------------------------|
B|------------------------------------------|
G|12-14-12~-12-12-12-9-12-------------------|
D|------------------------------------------|
A|------------------------------------------|
E|------------------------------------------|

E|------------------------------------------|
B|------------------------------------------|
G|14-12(X8)-16-14-12(X4)-14-12-9------------|
D|------------------------------------------|
A|------------------------------------------|
E|------------------------------------------|
exibições 61.745
Acordes para:
    Colaboração e revisão:
    • Felipe Nascimento

    0 comentários

    mostrar mais comentários

    Conseguiu tocar?

    6 tocaram 4 ainda não

    Grave um vídeo tocando Namorar Pra Quê? e mande pra gente!

    00:00 / 00:00
    outros vídeos desta música
    repetir qualidade Automático
    Outros vídeos desta música
    00:00 / 00:00
    Automático
    OK