Cifra Club

Amassa a Placa

MC Kevin

Cifra: Principal (violão e guitarra)
Tom: D#
Base intro: (Cm (2x) G# G) 2x
Intro (2x):

E|------------------------------------------------------|
B|-13-13-13-13-13-13-16--16-16-16-----------------------|
G|---------------------------------13----13-12~---------|
D|------------------------------------15----------------|
A|------------------------------------------------------|
E|------------------------------------------------------|

E|----------------13------------------------------------|
B|-13-13-13-13-13----16--16-16-16----------13-13-13-13--|
G|--------------------------------13-13-12--------------|
D|------------------------------------------------------|
A|------------------------------------------------------|
E|------------------------------------------------------|

 Cm                        G#  G
Tudo mudou, mas aí não mudo nada
 Cm                        G#
Bike virou R1, que era descalço
       G
Hoje sobe as marchas
 Cm
Vem com um papo de malícia
           G#  G
Pra não dá nada


 Cm
Ela joga o bumbum
         G#              G
A minha cota é amassa a placa
 Cm                          G#    G
Ela se acha forgando de nave comigo
  Cm                               G#
E nem imagina que tua amiga tem um vínculo
   G
Te digo

        Fm
Muitos falsos, poucos são amigos
       Fm
Nessa vida tu corre perigo
          Fm                     G#
Me dá um abraço de amigo, pelas costas já é inimigo
       Cm                          G#   G
Me desculpa geral, mas essa é a verdade
            Fm
Sei que já fui um neném
         Fm (pausa - deixa soar)
Andei de skate também


         Cm                               G#   G
Hoje em dia eles pousa só porque eu tô de nave
     Fm
Tá suave, Maserati e no mar nós corta de iate
                                  G#
Com as paty de verdade implorando só por uma night
     Fm
Tá suave, Maserati e no mar nós corta de iate
                                 G#
Com as paty de verdade, que é o Kevin e o Jorgin na night

Vai segurando
exibições 2.855
Acordes para:
    Colaboração e revisão:
    • Cirano Alves

    0 comentários

    mostrar mais comentários

    Conseguiu tocar?

    1 tocaram 0 ainda não

    Grave um vídeo tocando Amassa a Placa e mande pra gente!

    00:00 / 00:00
    outros vídeos desta música
    repetir qualidade Automático
    Outros vídeos desta música
    00:00 / 00:00
    Automático
    OK