Cifra Club

Aprenda

Pepeca do Mal

MC Livinho

Cifra: Principal (violão e guitarra)
Tom: F
Lá vem ela...
Corrigir o meu.....

E|-13---12----10-12---10-12-10-12-10-12-8----------|
B|-------------------------------------------------|
G|-------------------------------------------------|
D|-------------------------------------------------|
A|-------------------------------------------------|
E|-------------------------------------------------|


Pepeka do mal...

E|--5-3--3-----5-3-------|
B|-5----5----5-----5--1--|
G|-----------------------|
D|-----------------------|
A|-----------------------|
E|-----------------------|

aaaaaaaallllll

E|--5-3--3-----5-3---------------------|
B|-5----5----5-----5--1--3--5--6--5----|
G|-------------------------------------|
D|-------------------------------------|
A|-------------------------------------|
E|-------------------------------------|

Já que não quer.....

E|--------------------5-3--------|
B|-5-5-5-5-5-3-5--5-5-----5-3-1--|
G|-------------------------------|
D|-------------------------------|
A|-------------------------------|
E|-------------------------------|
Colaboração e revisão:
37.073 exibições
    • ½ Tom
    • A
    • Bb
    • B
    • C
    • Db
    • D
    • Eb
    • E
    • F
    • F#
    • G
    • Ab
  • Adicionar à lista

    0 comentários

    Mostrar mais comentários

    Conseguiu tocar?

    6 Tocaram 3 Ainda não

    Grave um vídeo tocando Pepeca do Mal e mande pra gente!

    00:00 / 00:00
    outros vídeos desta música
    repetir qualidade Automático
    Outros vídeos desta música
    00:00 / 00:00
    Automático

    Cifra Club Pro

    Aproveite o Cifra Club com benefícios exclusivos e sem anúncios
    Cifra Club Pro
    Aproveite o Cifra Club com benefícios exclusivos e sem anúncios
    OK