Cifra Club

Conto do Pescador

MC Menor da VG

Cifra: Principal (violão e guitarra)
tom: A
[Intro] 

E|-----12-12-12-11------------------------------------|
B|--9---------------12-12---12-10-10-12-10-9-9--------|
G|----------------------------------------------------| (2x)
D|----------------------------------------------------|
A|----------------------------------------------------|
E|----------------------------------------------------|

E|---------------------9------16-14-16--14-12-11-12-9-|
B|--9------9--10-9--------9---------------------------|
G|-----11----------11---------------------------------| (2x)
D|----------------------------------------------------|
A|----------------------------------------------------|
E|----------------------------------------------------|

[Refrão] 

               C#m                     F#m           
Eu nunca vi ninguém dançando como essa mina 
             C#m                     F#m
Eu nunca vi nenhuma dançar como essa mina 
                        C#m
De frente ela me deixa louco 
                       F#m
De costa ela vem me fascina 
                       C#m
De frente ela me deixa louco 
                   F#m
De costa ela me fascina

                                   C#m
Tava eu e o Jorginho apavorando na festa 
                    F#m          
Quando apareceu a gostosa
                    C#m
E se é gostosa me interessa 
                F#m                C#m
De repente percebi, já estava encantado 
                  F#m                  C#m               
Com a gata hipnotizando e o baile hipnotizado
 
                  F#m         Bm            C#m
Eu falei que tava bom, mas ainda vai melhorar 
                    F#m         Bm            C#m
É fato que eu quero ela, esse fato eu vou consumar 
              F#m       Bm     C#m
10 Minuto de ideia, ela já abraçou 
                 F#m           Bm          C#m
E foi aí que a sereia caiu no conto do pescador
00:00 / 00:00
Outros vídeos desta música
Repetir
Outros vídeos desta música
Composição de MC Menor Da VG
Colaboração e revisão:
  • Matheus Pessoa
  • Felipe Cassel
  • Ana Ávila
34.618 exibições
    • ½ Tom
    • A
    • Bb
    • B
    • C
    • Db
    • D
    • Eb
    • E
    • F
    • F#
    • G
    • Ab
  • Adicionar à lista

    0 comentários

    Ver todos os comentários

    Entre para oCifra Club PRO

    Tenha acesso a benefícios exclusivos no App e no Site

    • Chega de anúncios

    • Prioridade de compra em lançamentos

    • Mais recursos no app do Afinador

    • Atendimento Prioritário

    • Descontos nos produtos Cifra Club

    • Ajude a produzir mais conteúdo

    00:00 / 00:00

    Cifra Club Pro

    Aproveite o Cifra Club com benefícios exclusivos e sem anúncios
    Cifra Club Pro
    Aproveite o Cifra Club com benefícios exclusivos e sem anúncios
    OK