Cifra Club

Faz Minha Cobra Subir

MC Timbu

Cifra: Principal (violão e guitarra)
tom: Bb
E|-------------------------10----------|
B|----10-11-10-------10-11----11-10----|
G|-12----------12-12----------------12-|
D|-------------------------------------|
A|-------------------------------------|
E|-------------------------------------|

Gm            Cm
Ela faz, faz, faz
                   Gm
Faz minha cobra subir
              Cm
Ela faz, faz, faz
                   Gm
Faz minha cobra subir

                    Cm
A novinha olhou pra mim, começou a rir
                    Gm
Foi chegando bem pertinho, se envolveu
            Cm
Ela deu só uma sarrada em mim
      D7         Gm
Meu boneco endureceu

E|-------------------------10----------|
B|----10-11-10-------10-11----11-10----|
G|-12----------12-12----------------12-|
D|-------------------------------------|
A|-------------------------------------|
E|-------------------------------------|

E|-10-12-10-------------------------|----10----------------------------|
B|----------13-10-11-13-13-13-13-13-|-13----13-10-11-10----------------|
G|----------------------------------|-------------------12-12-12-12-12-|
D|----------------------------------|----------------------------------|
A|----------------------------------|----------------------------------|
E|----------------------------------|----------------------------------|

E|-10-12-10-------------------------|----10----------------|
B|----------13-10-11-13-13-13-13-13-|-13----13-10-11-10----|
G|----------------------------------|-------------------12-|
A|----------------------------------|----------------------|
E|----------------------------------|----------------------|

00:00 / 00:00
Outros vídeos desta música
Repetir
Outros vídeos desta música
Compositor não encontrado.
Colaboração e revisão:
  • Rafael Rosario
55 exibições
    • ½ Tom
    • A
    • Bb
    • B
    • C
    • Db
    • D
    • Eb
    • E
    • F
    • F#
    • G
    • Ab
  • Adicionar à lista

    0 comentários

    Ver todos os comentários

    Conseguiu tocar?

    0 Tocaram 0 Ainda não

    Grave um vídeo tocando Faz Minha Cobra Subir e nos envie!

    Entre para oCifra Club PRO

    Tenha acesso a benefícios exclusivos no App e no Site

    • Chega de anúncios

    • Prioridade de compra em lançamentos

    • Mais recursos no app do Afinador

    • Atendimento Prioritário

    • Descontos nos produtos Cifra Club

    • Ajude a produzir mais conteúdo

    00:00 / 00:00

    Cifra Club Pro

    Aproveite o Cifra Club com benefícios exclusivos e sem anúncios
    Cifra Club Pro
    Aproveite o Cifra Club com benefícios exclusivos e sem anúncios
    OK